» » »

Misfits, Scream Tabs (ver.3)

Artists:  A B C D E F G H I J K L M N O P Q R S T U V W X Y Z # 

Scream Tabs (ver.3)

Misfits Tabs
 Rating:
4/5 (4 votes)
Scream lessons Tabs too difficult? Try these video lessons and learn fast
                Band Misfits
 
Song Scream, this has been tabed by Andrew Calderon

aka galactick chicken sh*t hope u like it


e -------------------------------------------------------------------
b -------------------------------------------------------------------
g -------------------------------------------------------------------
D -------------------------------------------------------------------
A 9~4~5~2---9~4~5--9~4~5~2---9~5~4----------------------------------- 
E ------------------------------------------------------------------- 


e -------------------------------------------------------------------
b -------------------------------------------------------------------
g --------------------------7----------------------------------------
D 9--7--5-- 9--7-5-----9--7-7---9--7--5------------------------------
A 9--7--5-- 9--7-5-----9--7-5---9--7--5------------------------------
E 7--5--3-- 7--5-3-----7--5-----7--5--3------------------------------

e -------------------------------------------------------------------
b -------------------------------------------------------------------
g --------------------7777------------------------------------------- 
D 99999999-5555555555-7777--777777777-------------------------------- x2
A 99999999-5555555555-5555--777777777-------------------------------- 
E 77777777-3333333333-------555555555-------------------------------- 


e -------------------------------------------------------------------
b ---------------7777777--------------------------------------------- 
g 999999--777777-7777777---------------------------------------------  
D 999999--777777-5555555---------------------------------------------  x2 
E 777777--555555-----------------------------------------------------  


e -------------------------------------------------------------------
b -------------------------------------------------------------------
g --------------------7777-------------------------------------------
D 99999999---55555555-7777-77777777----------------------------------  x2
A 99999999---55555555-5555-77777777---------------------------------- 
E 77777777---33333333------55555555----------------------------------


e ------------------------------------------------------------------- 
b -------------------------------------------------------------------
g ---------------777777----------------------------------------------
D 999999--555555-777777----------------------------------------------  x2
A 999999--555555-555555---------------------------------------------- 
E 777777--333333----------------------------------------------------- 


e -------------------------------------------------------------------
b -------------------------------------------------------------------
g --------------------7777-------------------------------------------
D 99999999--55555555--7777-77777777----------------------------------
A 99999999--55555555--5555-77777777---------------------------------- x2
E 77777777--33333333-------55555555---------------------------------- 


e -------------------------------------------------------------------
b -------------------------------------------------------------------
g --------------------77777777---------------------------------------
D 99999999--77777777--77777777---------------------------------------
A 99999999--77777777--55555555--------------------------------------- 
E 77777777--55555555-------------------------------------------------


e -------------------------------------------------------------------
b -------------------------------------------------------------------
g -------------------------------------------------------------------
D 9-7-9---9-7-9--9-7-9---6--4---------------------------------------- 
A 9-7-9---9-7-9--9-7-9---6--4---------------------------------------- x2
E 7-5-7---7-5-7--7-5-7---4--2----------------------------------------

e -------------------------------------------------------------------
b -------------------------------------------------------------------
g ---------------777777----------------------------------------------
D 999999--777777-777777----------------------------------------------
A 999999--777777-555555---------------------------------------------- x2
E 777777--555555-----------------------------------------------------

e -------------------------------------------------------------------
b -------------------------------------------------------------------
g -------------------7777--------------------------------------------
D 99999999--55555555-7777-77777777-----------------------------------  x2
A 99999999--55555555-5555-77777777-----------------------------------
E 77777777--33333333------55555555-----------------------------------


e -------------------------------------------------------------------
b -------------------------------------------------------------------
g --------------777777-----------------------------------------------
D 999999-777777-777777----------------------------------------------- x2
A 999999-777777-555555-----------------------------------------------
E 777777-555555------------------------------------------------------

  i tried to make it sound as close as possible so rate it please!!!!!
            
Submit corrections

comments powered by Disqus
↑ Back to top | Misfits Tabs for Scream. Lyrics for acoustic guitar and electric guitar. Tablatures and chords are parodies/interpretations of the original songs. You may use it for private study, scholarship, research or language learning purposes only