» » »

Misfits, Saturday Night Tabs (ver.2)

Artists:  A B C D E F G H I J K L M N O P Q R S T U V W X Y Z # 

Saturday Night Tabs (ver.2)

Misfits Tabs
Rating:
0/5 (0 votes)
Saturday Night lessons Tabs too difficult? Try these video lessons and learn fast
                MISFITS
SATURDAY NIGHT
ALBUM FAMOUS MONSTERS
PM=PALM MUTED
E---------------------------------------------
B---------------------------------------------
G---------------------------------------------
D-7/11-11----11\7/8-8----3-4-4----5-6-6-------
A-7/11-11-8X-11\7/8-8-8X-3-4-4-8X-5-6-6-8X----
E-5/-9--9-----9\5/6-6----1-2-2----3-4-4-------

E---------------------------------------------
B---------------------------------------------
G---------------------------------------------
D---------------------------------------------
A-4/8\6\4/6/8\4-4/6/8\4-4/6\4\3-3/4/6\4-------
E---------------------------------------------

E------------------------------------------------------------
B------------------------------------------------------------
G------------------------------------------------------------
D-7/8----8---8----8---3/4----4---4----4---5/6----6---6----6--
A-7/8-3X-8---8-3X-8---3/4-3X-4---4-3X-4---5/6-3X-6---6-3X-6--
E-5/6----6---6----6---1/2----2---2----2---3/4----4---4----4--
 ^PM^       PM       ^PM^       PM       ^PM^       PM    
E-----------------------------------------------------------------
B-----------------------------------------------------------------
G-----------------------------------------------------------------
D-7/11----11--11----11--7/8-8-8----8---3/4-4-4----4---5/6-6-6----6
A-7/11-3X-11--11-3X-11--7/8-8-8-3X-8---3/4-4-4-3X-4---5/6-6-6-3X-6
E-5/-9-----9---9-----9--5/6-6-6----6---1/2-2-2----2---3/4-4-4----4
 ^PM~^         PM             PM             PM             PM   
E--------------------------------------
B--------------------------------------
G--------------------------------------
D-11-----7/8-----4-----6---------------
A-11-12X-7/8-12X-4-12X-6-12X-----------
E--9-----5/6-----2-----4---------------
  
E--------------------------------------
B--------------------------------------<~~~~~~~ 
D-4-4----6-6----11-11-----11-----------   2X
A-4-4-4X-6-6-4X-11-11-4X--11-6X--------<~~~~~~~
E-2-2----4-4-----9--9------9-----------
                          PM
E-------------------------------------
B-------------------------------------
G-------------------------------------
D-4-4----6-6------3----4--------------
A-4-4-4X-6-6-4X---3-6X-4-6X-----------
E-2-2----4-4------1----2--------------
                 ^~~PM~~^
E--------------------------------------------------
B--------------------------------------------------
G--------------------------------------------------
D-11-11----11\7/8-8----3/4-4-4--5/6-6-6--11-11-----
A-11-11-8X-11\7/8-8-8X-3/4-4-4--5/6-6-6--11-11-12X-
E--9--9-----9\5/6-6----1/2-2-2--3/4-4-4---9--9-----

E--------------------------------------------------
B--------------------------------------------------
G--------------------------------------------------
D-11-11----11\7/8-8----3/4-4-4--5/6-6-6-11-11------
A-11-11-8X-11\7/8-8-8X-3/4-4-4--5/6-6-6-11-11-8X---
E--9--9-----9\5/6-6----1/2-2-2--3/4-4-4--9--9------

E---------------------------------------------------
B---------------------------------------------------
G---------------------------------------------------
D---------------------------------------------------
A-4/8\6\4/6/8\4-4/6/8\4-4/6\4\3-3/4/6-6-LET-RING...-
E---------------------------------------------------

E-------------------------------------------
B-------------------------------------------
G-------------------------------------------
D-11-11-11----11--6-6-6----6--8-8-8----8----
A-11-11-11-3X-11--6-6-6-3X-6--8-8-8-3X-8----
E--9--9--9-----9--4-4-4----4--6-6-6----6----
        PM            PM          PM 
E-----------------------------------------
B-----------------------------------------
G-8---------------------------------------
D-8-12X-10-----6-6-----8-8----------------
A-6-----10-12X-6-6-10X-8-8-10X------------
E--------8-----4-4-----6-6----------------
 PM
E------------------------------------------------------
B------------------------------------------------------
G---------------8-8------------------------8-8---------
D-6-6----8-8----8-8-4X-8-----6-6----8-8----8-8-4X-6----
A-6-6-4X-8-8-4X-6-6----8-6X--6-6-4X-8-8-4X-6-6----6-6X-
E-4-4----6-6-----------6-----4-4----6-6-----------4----
                      PM                          PM
E----------------------------
B----------------------------
G----------------------------
D-4-4----6-6----5----6-------
A-4-4-4X-6-6-4X-5-6X-6-6X----
E-2-2----4-4----3----4-------
                ^PALM MUTED^
E--------------------------------------------
B--------------------------------------------
G---------------8----5------------------8----
D-6-6----8-8----8-8X-5-8X-6-6----8-8----8-6X-
A-6-6-4X-8-8-4X-6----3----6-6-4X-8-8-4X-6----
E-4-4----6-6--------------4-4----6-6---------

E-------------------------------------
B-------------------------------------
G-8----5------------------8-8---------
D-8-8X-5-8X-6-6----8-8----8-8-4X------
A-6----3----6-6-4X-8-8-4X-6-6---------
E-----------4-4----6-6----------------

E-------------------------------
B-------------------------------
G-8-7-5----5-3------------------
D-8-7-5-6X-5-3-6-6----8-8-------
A-6-5-3----3-1-6-6-4X-8-8-4X----
E--------------4-4----6-6-------

E------------------------------------------------------
B------------------------------------------------------
G-8-8----8-7-5--5-3--------------------8------8--------
D-8-8-4X-8-7-5--5-3--6----------8------8-RING-8-RING---
A-6-6----6-5-3--3-1--6-LET-RING-8-RING-6------6--------
R--------------------4----------6----------------------
            

comments powered by Disqus
↑ Back to top | Misfits Tabs for Saturday Night. Lyrics for acoustic guitar and electric guitar. Tablatures and chords are parodies/interpretations of the original songs. You may use it for private study, scholarship, research or language learning purposes only