» » »

Kong At The Gates Tabs (ver.3)

Artists:  A B C D E F G H I J K L M N O P Q R S T U V W X Y Z # 

Kong At The Gates Tabs (ver.3)

Misfits
Rating:
0/5 (0 votes)

Hard to play? Try these video lessons and learn fast.
                Tuned down half a step

This song kicks ass so i just had to learn it.


 Intro (Drums)


[---------------------------------------------------------------------------------
[---------------------------------------------------------------------------------
[---------------------------------------------------------------------------------
[-2-----------2---------------------2--3-2-----2--3-2-3-2-3-2-3-232-2--3-2------2-
[-0--3-2------0--3-2-3-2-3-2-3-232--0------3-2-0--------------------0--3-2--3-2-0-
[---------3-2---------------------------------------------------------------3-2---

[-------------------
[-------------------
[-------------------
[-3-2-3-2-3-2-3-232-
[-3-2-3-2-3-2-3-232-
[-------------------

That is the whole song, possibly the easiest song on the album. Have fun and enjoy.
            
Hard to play? Try these video lessons and learn fast. | Correct




comments powered by Disqus
↑ Back to top | Tablatures and chords are parodies/interpretations of the original songs. You may use it for private study, scholarship, research or language learning purposes only