» » »

Misfits, Halloween Tabs (ver.2)

Artists:  A B C D E F G H I J K L M N O P Q R S T U V W X Y Z # 

Halloween Tabs (ver.2)

Misfits Tabs
Rating:
0/5 (0 votes)
Halloween lessons Tabs too difficult? Try these video lessons and learn fast
                MISFITS
HALLOWEEN
ALBUM?
RATE IT
E------------------- E----------------------------
B------------------- B----------------------------
G------------------- G--------5-------------------
D--2---------------- D--7-----5-16X-3----5--------
A--2-LET-RING.....-- A--7-16X-3-----3-8X-5-8X-----
E--0---------------- E--5-----------1----3--------
                       ^~~~~~~~~~2X~~~~~~~~~~^
E-------------------------------------------------
B-------------------------------------------------
G-----------------5-------------------------------
D-----------7-----5-16X-3----5--------------------
A-----------7-16X-3-----3-8X-5-8X-----------------
E--6\5------5-----------1----3------------6\5-----
  ^~8X~^   ^~~~~~~~~~~2X~~~~~~~~~~^      ^~8X~^
E-------------------------------------------------
B-------------------------------------------------
G--9-10------------9-10---------------------------
D--9-10------------9-10------7-----5--------------
A--7--8------------7--8------7-16X-5-16X----------
E-----------6\5--------------5-----3--------------
  ^~4X~^   ^~8X~^ ^~4X~^    ^~~~~2X~~~~~^
E-------------------------------------------------
B-------------------------------------------------
G--------5----------------------------------------
D--7-----5-16X-3----5--------7-----5--------------
A--7-16X-3-----3-8X-5-8X-----7-16X-5-16X----------
E--5-----------1----3--------5-----3--------------
  ^~~~~~~~~~2X~~~~~~~~~^    ^~~~~4X~~~~^
E----------------------------
B----------------------------
G----------------------------
D--2-2-2-2-2-2-2-2-----2-----
A--2-2-2-2-2-2-2-2-----2.....
E--0-0-0-0-0-0-0-0-----0-----
            
Submit corrections

comments powered by Disqus
↑ Back to top | Misfits Tabs for Halloween. Lyrics for acoustic guitar and electric guitar. Tablatures and chords are parodies/interpretations of the original songs. You may use it for private study, scholarship, research or language learning purposes only