» » »

Misfits, Dig Up Her Bone Tabs (ver.7)

Artists:  A B C D E F G H I J K L M N O P Q R S T U V W X Y Z # 

Dig Up Her Bone Tabs (ver.7)

Misfits Tabs
 Rating:
4/5 (4 votes)
Dig Up Her Bone lessons Tabs too difficult? Try these video lessons and learn fast
                
(HOWLING....)

INTRO:
E|--------------------------------------------------|
B|--------------------------------------------------|
G|-4-4-4-4-4-4--------------------------------------|
D|-4-4-4-4-4-4-5-5-5-5-5-5-7-7-7-7-7-7--------------|
A|-2-2-2-2-2-2-5-5-5-5-5-5-7-7-7-7-7-7--------------|
E|-------------3-3-3-3-3-3-5-5-5-5-5-5--5H7-5H7-5H7-|

E|-------------------------------------------------|
B|-------------------------------------------------|
G|-4-4-4-4-4-4-------------7-7-7-7-7-7-------------|
D|-4-4-4-4-4-4-5-5-5-5-5-5-7-7-7-7-7-7-7-7-7-7-7-7-|
A|-2-2-2-2-2-2-5-5-5-5-5-5-5-5-5-5-5-5-7-7-7-7-7-7-|
E|-------------3-3-3-3-3-3-------------5-5-5-5-5-5-|

E|-----------------------------------------|
B|-----------------------------------------|
G|-4-4-4-4-4-4-----------------------------|
D|-4-4-4-4-4-4-5-5-5-5-5-5-7-7-7-7-7-7---7-|
A|-2-2-2-2-2-2-5-5-5-5-5-5-7-7-7-7-7-7---7-|
E|-------------3-3-3-3-3-3-5-5-5-5-5-5---5-|

VERSE:
**play, x4**
E|--------------------------------------------------|
B|--------------------------------------------------|
G|-4-4-4-4-4-4--------------------------------------|
D|-4-4-4-4-4-4-5-5-5-5-5-5-7-7-7-7-7-7--------------|
A|-2-2-2-2-2-2-5-5-5-5-5-5-7-7-7-7-7-7--------------|
E|-------------3-3-3-3-3-3-5-5-5-5-5-5--5H7-5H7-5H7-|


"AND THE DOOR IT OPENS....  WAY BACK IN"
E|--------------------------------|
B|--------------------------------|
G|--------------------------------|
D|-5-5-5-5-5-5-7-7-7-7-7-7--------|
A|-5-5-5-5-5-5-7-7-7-7-7-7--------|
E|-3-3-3-3-3-3-5-5-5-5-5-5--5H7P5-|

"OR IS IT... WAY BACK OUT?"
E|--------------------------------|
B|--------------------------------|
G|--------------------------------|
D|-5-5-5-5-5-5-7-7-7-7-7-7--------|
A|-5-5-5-5-5-5-7-7-7-7-7-7--------|
E|-3-3-3-3-3-3-5-5-5-5-5-5--5H7P5-|

**Play x4**
E|--------------------------------------------------|
B|--------------------------------------------------|
G|-4-4-4-4-4-4--------------------------------------|
D|-4-4-4-4-4-4-5-5-5-5-5-5-7-7-7-7-7-7--------------|
A|-2-2-2-2-2-2-5-5-5-5-5-5-7-7-7-7-7-7--------------|
E|-------------3-3-3-3-3-3-5-5-5-5-5-5--5H7-5H7-5H7-|


"AND DEATH CLIMBS UP THE STEPS ONE BY ONE"
E|--------------------------------|
B|--------------------------------|
G|--------------------------------|
D|-5-5-5-5-5-5-7-7-7-7-7-7--------|
A|-5-5-5-5-5-5-7-7-7-7-7-7--------|
E|-3-3-3-3-3-3-5-5-5-5-5-5--5H7P5-|

"TO GIVE YOU THE ROSE THATS BEEN BURNT BY HER SON"
E|--------------------------------|
B|--------------------------------|
G|--------------------------------|
D|-5-5-5-5-5-5-7-7-7-7-7-7--------|
A|-5-5-5-5-5-5-7-7-7-7-7-7--------|
E|-3-3-3-3-3-3-5-5-5-5-5-5--5H7P5-|

CHORUS:

**Play x 4**
E|-----------------------------------------------------------------|
B|-----------------------------------------------------------------|
G|-4-4-4-4-4-4-4-4-----------------7-7-7-7-7-7-7-7-----------------|
D|-4-4-4-4-4-4-4-4-5-5-5-5-5-5-5-5-7-7-7-7-7-7-7-7-7-7-7-7-7-7-7-7-|
A|-2-2-2-2-2-2-2-2-5-5-5-5-5-5-5-5-5-5-5-5-5-5-5-5-7-7-7-7-7-7-7-7-|
E|-----------------3-3-3-3-3-3-3-3-----------------5-5-5-5-5-5-5-5-|


BEFORE GOING BACK INTO THE VERSE:
**Repeat x2**
E|--------------------------------------------------|
B|--------------------------------------------------|
G|-4-4-4-4-4-4--------------------------------------|
D|-4-4-4-4-4-4-5-5-5-5-5-5-7-7-7-7-7-7--------------|
A|-2-2-2-2-2-2-5-5-5-5-5-5-7-7-7-7-7-7--------------|
E|-------------3-3-3-3-3-3-5-5-5-5-5-5--5H7-5H7-5H7-|


VERSE:
**Play 4x**
E|--------------------------------------------------|
B|--------------------------------------------------|
G|-4-4-4-4-4-4--------------------------------------|
D|-4-4-4-4-4-4-5-5-5-5-5-5-7-7-7-7-7-7--------------|
A|-2-2-2-2-2-2-5-5-5-5-5-5-7-7-7-7-7-7--------------|
E|-------------3-3-3-3-3-3-5-5-5-5-5-5--5H7-5H7-5H7-|

**Play 2 x**
E|--------------------------------|
B|--------------------------------|
G|--------------------------------|
D|-5-5-5-5-5-5-7-7-7-7-7-7--------|
A|-5-5-5-5-5-5-7-7-7-7-7-7--------|
E|-3-3-3-3-3-3-5-5-5-5-5-5--5H7P5-|


CHORUS:
**Play 12x to the Ending**
E|-----------------------------------------------------------------|
B|-----------------------------------------------------------------|
G|-4-4-4-4-4-4-4-4-----------------7-7-7-7-7-7-7-7-----------------|
D|-4-4-4-4-4-4-4-4-5-5-5-5-5-5-5-5-7-7-7-7-7-7-7-7-7-7-7-7-7-7-7-7-|
A|-2-2-2-2-2-2-2-2-5-5-5-5-5-5-5-5-5-5-5-5-5-5-5-5-7-7-7-7-7-7-7-7-|
E|-----------------3-3-3-3-3-3-3-3-----------------5-5-5-5-5-5-5-5-|

END ON
E|----------------------------------------------|
B|----------------------------------------------|
G|-4--------------------------------------------|
D|-4--------------------------------------------|
A|-2-
            
Submit corrections

comments powered by Disqus
↑ Back to top | Misfits Tabs for Dig Up Her Bone. Lyrics for acoustic guitar and electric guitar. Tablatures and chords are parodies/interpretations of the original songs. You may use it for private study, scholarship, research or language learning purposes only