» » »

Dig Up Her Bone 1 Tabs

Artists:  A B C D E F G H I J K L M N O P Q R S T U V W X Y Z # 

Dig Up Her Bone 1 Tabs

(ver. 1)
Misfits Tabs
 Rating:
4/5 (4 votes)
    Dig Up Her Bone lessons Tabs too difficult? Try these video lessons and learn fast
                Bb5		F#5		G#5
e|---------------------------------------------------------------------------|
B|---------------------------------------------------------------------------|
G|---------------------------------------------------------------------------|
D|-8-8--8-8-8---4--4-4--4-4-4---6-6--6-6-6-----------------------------------|4x
A|-8-8--8-8-8---4--4-4--4-4-4---6-6--6-6-6-----------------------------------|
E|-6-6--6-6-6---2--2-2--2-2-2---4-4--4-4-4--6p4-6p4-6p4-6p4------------------|

Verse:

   Bb5		    F#5		     G#5
e|---------------------------------------------------------------------------|
B|---------------------------------------------------------------------------|
G|---------------------------------------------------------------------------|
D|-8--8-8-8-8-8-8---4--4-4-4-4-4-4---6--6-6-6-6-6-6--------------------------|4x
A|-8--8-8-8-8-8-8---4--4-4-4-4-4-4---6--6-6-6-6-6-6--------------------------|
E|-6--6-6-6-6-6-6---2--2-2-2-2-2-2---4--4-4-4-4-4-4--6p4-6p4-6p4-6p4---------|

followed by...

   F#5		G#5		Bb5
e|---------------------------------------------------------------------------|
B|---------------------------------------------------------------------------|
G|---------------------------------------------------------------------------|
D|-4-4--4-4-4---6--6-6--6-6-6---8-8--8-8-8--8--8-8--8-8-8-8------------------|2x
A|-4-4--4-4-4---6--6-6--6-6-6---8-8--8-8-8--8--8-8--8-8-8-8------------------|
E|-2-2--2-2-2---4--4-4--4-4-4---6-6--6-6-6--6--6-6--6-6-6-6------------------|

Chorus:

   Bb5		    F#5		     C#5	      G#5
e|---------------------------------------------------------------------------|
B|---------------------------------------------------------------------------|
G|-----------------------------------6--6-6-6-6-6-6--------------------------|
D|-8--8-8-8-8-8-8---4--4-4-4-4-4-4---6--6-6-6-6-6-6---6--6-6-6-6-6-6---------|
A|-8--8-8-8-8-8-8---4--4-4-4-4-4-4---4--4-4-4-4-4-4---6--6-6-6-6-6-6---------|
E|-6--6-6-6-6-6-6---2--2-2-2-2-2-2--------------------4--4-4-4-4-4-4---------|
            
Submit corrections

↑ Back to top | Misfits Tabs for Dig Up Her Bone. Lyrics for acoustic guitar and electric guitar. Tablatures and chords are parodies/interpretations of the original songs. You may use it for private study, scholarship, research or language learning purposes only