» » »

Decending Angel Tabs

Artists:  A B C D E F G H I J K L M N O P Q R S T U V W X Y Z # 

Decending Angel Tabs

(ver. 1)
Misfits Tabs
 Rating:
4/5 (4 votes)
    Decending Angel lessons Tabs too difficult? Try these video lessons and learn fast
                i was too lazy to complete the solo....but here's everything else....
pm=palm mute

( chorus and intro )
E----------------------------------------------------------------
B----------------------------------------------------------------
G-3-3-3-3-6-6-6-6-----------------------------------------------
D-3-3-3-3-6-6-6-6-6-6-6-6---33333333----------------------------
A-1-1-1-1-4-4-4-4-6-6-6-6---33333333----------------------------
E-----------------4-4-4-4-/-11111111----------------------------
                            ---pm---
                           (slide down then go up to 1 )


( verse )
E----------------------------------------------------------------
B----------------------------------------------------------------
G-3-3-3-3-6-6-6-6------------------------------------------------
D-3-3-3-3-6-6-6-6-6666666666666666-------------------------------
A-1-1-1-1-4-4-4-4-6666666666666666-------------------------------
E-----------------4444444444444444-------------------------------
                         ---pm----

order:
Intro 2x
verse 3x
chorus 2x
verse 3x
chorus 2x
verse ( during solo )
chorus


ends with:
E----------------------------------------------------------------
B----------------------------------------------------------------
G---3----------------------------------------------
D-3-3-------------------------------
A-3-1-------------------------------
E-1-----------------------------------------------
            
Submit corrections

↑ Back to top | Misfits Tabs for Descending Angel. Lyrics for acoustic guitar and electric guitar. Tablatures and chords are parodies/interpretations of the original songs. You may use it for private study, scholarship, research or language learning purposes only