» » »

Blood Feast Tabs (ver.1)

Artists:  A B C D E F G H I J K L M N O P Q R S T U V W X Y Z # 

Blood Feast Tabs (ver.1)

Misfits
Rating:
0/5 (0 votes)

Hard to play? Try these video lessons and learn fast.
                BloodFeast


E  :------------------|------------------|------------------|
B  :------------------|------------------|------------------|
G  :9---9-9---9-9-(9)-|7---7-7---7-7-(7)-|7---7-7---7-7-(7)-|
D  :9---9-9---9-9-(9)-|7---7-7---7-7-(7)-|7---7-7---7-7-(7)-|
A  :7---7-7---7-7-(7)-|5---5-5---5-5-(5)-|5---5-5---5-5-(5)-|
E  :------------------|------------------|------------------|

E  :------------------|-----------------------|------------------|
B  :------------------|-----------------------|------------------|
G  :9---9-9---9-9-(9)-|10-10-*-10-*-10---(10)-|9---9-9---9-9-(9)-|
D  :9---9-9---9-9-(9)-|10-10---10---10---(10)-|9---9-9---9-9-(9)-|
A  :7---7-7---7-7-(7)-|-8--8----8----8---(-8)-|7---7-7---7-7-(7)-|
E  :------------------|-----------------------|------------------|

E  :------------------|------------------|------------------|
B  :------------------|------------------|------------------|
G  :7---7-7---7-7-(7)-|7---7-7---7-7-(7)-|9---9-9---9-9-(9)-|
D  :7---7-7---7-7-(7)-|7---7-7---7-7-(7)-|9---9-9---9-9-(9)-|
A  :5---5-5---5-5-(5)-|5---5-5---5-5-(5)-|7---7-7---7-7-(7)-|
E  :------------------|------------------|------------------|

E  :-----------------------|------------------|------------------|
B  :-----------------------|------------------|------------------|
G  :10-10-*-10-*-10---(10)-|9---9-9---9-9-(9)-|7---7-7---7-7-(7)-|
D  :10-10---10---10---(10)-|9---9-9---9-9-(9)-|7---7-7---7-7-(7)-|
A  :-8--8----8----8---(-8)-|7---7-7---7-7-(7)-|5---5-5---5-5-(5)-|
E  :-----------------------|------------------|------------------|

E  :------------------|------------------|-----------------------|
B  :------------------|------------------|-----------------------|
G  :7---7-7---7-7-(7)-|9---9-9---9-9-(9)-|10-10-*-10-*-10---(10)-|
D  :7---7-7---7-7-(7)-|9---9-9---9-9-(9)-|10-10---10---10---(10)-|
A  :5---5-5---5-5-(5)-|7---7-7---7-7-(7)-|-8--8----8----8---(-8)-|
E  :------------------|------------------|-----------------------|

E  :------------------|------------------|------------------|
B  :------------------|------------------|------------------|
G  :9---9-9---9-9-(9)-|7---7-7---7-7-(7)-|7---7-7---7-7-(7)-|
D  :9---9-9---9-9-(9)-|7---7-7---7-7-(7)-|7---7-7---7-7-(7)-|
A  :7---7-7---7-7-(7)-|5---5-5---5-5-(5)-|5---5-5---5-5-(5)-|
E  :------------------|------------------|------------------|

E  :------------------|-----------------------|----------------|
B  :------------------|-----------------------|----------------|
G  :9---9-9---9-9-(9)-|10-10-*-10-*-10---(10)-|----------------|
D  :9---9-9---9-9-(9)-|10-10---10---10---(10)-|7---7-7---7-7-7-|
A  :7---7-7---7-7-(7)-|-8--8----8----8---(-8)-|7---7-7---7-7-7-|
E  :------------------|-----------------------|5---5-5---5-5-5-|

E  :----------------------|----------------|-----------------------|
B  :----------------------|----------------|-----------------------|
G  :----------------------|9---9-9---9-9-9-|10-10-*-10-*-10---(10)-|
D  :10---10-10---10-10-10-|9---9-9---9-9-9-|10-10---10---10---(10)-|
A  :10---10-10---10-10-10-|7---7-7---7-7-7-|-8--8----8----8---(-8)-|
E  :-8----8--8----8--8--8-|----------------|-----------------------|

E  :----------------|----------------------|----------------|
B  :----------------|----------------------|----------------|
G  :----------------|----------------------|9---9-9---9-9-9-|
D  :7---7-7---7-7-7-|10---10-10---10-10-10-|9---9-9---9-9-9-|
A  :7---7-7---7-7-7-|10---10-10---10-10-10-|7---7-7---7-7-7-|
E  :5---5-5---5-5-5-|-8----8--8----8--8--8-|----------------|

E  :-----------------------|------------------|------------------|
B  :-----------------------|------------------|------------------|
G  :10-10-*-10-*-10---(10)-|9---9-9---9-9-(9)-|7---7-7---7-7-(7)-|
D  :10-10---10---10---(10)-|9---9-9---9-9-(9)-|7---7-7---7-7-(7)-|
A  :-8--8----8----8---(-8)-|7---7-7---7-7-(7)-|5---5-5---5-5-(5)-|
E  :-----------------------|------------------|------------------|

E  :------------------|------------------|-----------------------|
B  :------------------|------------------|-----------------------|
G  :7---7-7---7-7-(7)-|9---9-9---9-9-(9)-|10-10-*-10-*-10---(10)-|
D  :7---7-7---7-7-(7)-|9---9-9---9-9-(9)-|10-10---10---10---(10)-|
A  :5---5-5---5-5-(5)-|7---7-7---7-7-(7)-|-8--8----8----8---(-8)-|
E  :------------------|------------------|-----------------------|

E  :------------------|------------------|------------------|
B  :------------------|------------------|------------------|
G  :9---9-9---9-9-(9)-|7---7-7---7-7-(7)-|7---7-7---7-7-(7)-|
D  :9---9-9---9-9-(9)-|7---7-7---7-7-(7)-|7---7-7---7-7-(7)-|
A  :7---7-7---7-7-(7)-|5---5-5---5-5-(5)-|5---5-5---5-5-(5)-|
E  :------------------|------------------|------------------|

E  :------------------|-----------------------|------------------|
B  :------------------|-----------------------|------------------|
G  :9---9-9---9-9-(9)-|10-10-*-10-*-10---(10)-|9---9-9---9-9-(9)-|
D  :9---9-9---9-9-(9)-|10-10---10---10---(10)-|9---9-9---9-9-(9)-|
A  :7---7-7---7-7-(7)-|-8--8----8----8---(-8)-|7---7-7---7-7-(7)-|
E  :------------------|-----------------------|------------------|

E  :------------------|------------------|------------------|
B  :------------------|------------------|------------------|
G  :7---7-7---7-7-(7)-|7---7-7---7-7-(7)-|9---9-9---9-9-(9)-|
D  :7---7-7---7-7-(7)-|7---7-7---7-7-(7)-|9---9-9---9-9-(9)-|
A  :5---5-5---5-5-(5)-|5---5-5---5-5-(5)-|7---7-7---7-7-(7)-|
E  :------------------|------------------|------------------|

E  :-----------------------|------------------|------------------|
B  :-----------------------|------------------|------------------|
G  :10-10-*-10-*-10---(10)-|9---9-9---9-9-(9)-|7---7-7---7-7-(7)-|
D  :10-10---10---10---(10)-|9---9-9---9-9-(9)-|7---7-7---7-7-(7)-|
A  :-8--8----8----8---(-8)-|7---7-7---7-7-(7)-|5---5-5---5-5-(5)-|
E  :-----------------------|------------------|------------------|

E  :------------------|------------------|-----------------------|
B  :------------------|------------------|-----------------------|
G  :7---7-7---7-7-(7)-|9---9-9---9-9-(9)-|10-10-*-10-*-10---(10)-|
D  :7---7-7---7-7-(7)-|9---9-9---9-9-(9)-|10-10---10---10---(10)-|
A  :5---5-5---5-5-(5)-|7---7-7---7-7-(7)-|-8--8----8----8---(-8)-|
E  :------------------|------------------|-----------------------|

E  :----------------|----------------------|----------------|
B  :----------------|----------------------|----------------|
G  :----------------|----------------------|9---9-9---9-9-9-|
D  :7---7-7---7-7-7-|10---10-10---10-10-10-|9---9-9---9-9-9-|
A  :7---7-7---7-7-7-|10---10-10---10-10-10-|7---7-7---7-7-7-|
E  :5---5-5---5-5-5-|-8----8--8----8--8--8-|----------------|

E  :-----------------------|----------------|----------------------|
B  :-----------------------|----------------|----------------------|
G  :10-10-*-10-*-10---(10)-|----------------|----------------------|
D  :10-10---10---10---(10)-|7---7-7---7-7-7-|10---10-10---10-10-10-|
A  :-8--8----8----8---(-8)-|7---7-7---7-7-7-|10---10-10---10-10-10-|
E  :-----------------------|5---5-5---5-5-5-|-8----8--8----8--8--8-|

E  :----------------|-----------------------|----------------|
B  :----------------|-----------------------|----------------|
G  :9---9-9---9-9-9-|10-10-*-10-*-10---(10)-|----------------|
D  :9---9-9---9-9-9-|10-10---10---10---(10)-|5---5-5---5-5-5-|
A  :7---7-7---7-7-7-|-8--8----8----8---(-8)-|5---5-5---5-5-5-|
E  :----------------|-----------------------|3---3-3---3-3-3-|

E  :----------------|----------------|---------------------|
B  :----------------|----------------|---------------------|
G  :7---7-7---7-7-7-|9---9-9---9-9-9-|10-10---10---10---10-|
D  :7---7-7---7-7-7-|9---9-9---9-9-9-|10-10---10---10---10-|
A  :5---5-5---5-5-5-|7---7-7---7-7-7-|-8--8----8----8----8-|
E  :----------------|----------------|---------------------|

E  :----------------|----------------|----------------|
B  :----------------|----------------|----------------|
G  :----------------|7---7-7---7-7-7-|9---9-9---9-9-9-|
D  :5---5-5---5-5-5-|7---7-7---7-7-7-|9---9-9---9-9-9-|
A  :5---5-5---5-5-5-|5---5-5---5-5-5-|7---7-7---7-7-7-|
E  :3---3-3---3-3-3-|----------------|----------------|

E  :---------------------|------------------|------------------|
B  :---------------------|------------------|------------------|
G  :10-10---10---10---10-|9---9-9---9-9-(9)-|7---7-7---7-7-(7)-|
D  :10-10---10---10---10-|9---9-9---9-9-(9)-|7---7-7---7-7-(7)-|
A  :-8--8----8----8----8-|7---7-7---7-7-(7)-|5---5-5---5-5-(5)-|
E  :---------------------|------------------|------------------|

E  :------------------|------------------|-----------------------|
B  :------------------|------------------|-----------------------|
G  :7---7-7---7-7-(7)-|9---9-9---9-9-(9)-|10-10-*-10-*-10---(10)-|
D  :7---7-7---7-7-(7)-|9---9-9---9-9-(9)-|10-10---10---10---(10)-|
A  :5---5-5---5-5-(5)-|7---7-7---7-7-(7)-|-8--8----8----8---(-8)-|
E  :------------------|------------------|-----------------------|

E  :------------------|------------------|------------------|
B  :------------------|------------------|------------------|
G  :9---9-9---9-9-(9)-|7---7-7---7-7-(7)-|7---7-7---7-7-(7)-|
D  :9---9-9---9-9-(9)-|7---7-7---7-7-(7)-|7---7-7---7-7-(7)-|
A  :7---7-7---7-7-(7)-|5---5-5---5-5-(5)-|5---5-5---5-5-(5)-|
E  :------------------|------------------|------------------|

E  :------------------|-----------------------|------------------|
B  :------------------|-----------------------|------------------|
G  :9---9-9---9-9-(9)-|10-10-*-10-*-10---(10)-|9---9-9---9-9-(9)-|
D  :9---9-9---9-9-(9)-|10-10---10---10---(10)-|9---9-9---9-9-(9)-|
A  :7---7-7---7-7-(7)-|-8--8----8----8---(-8)-|7---7-7---7-7-(7)-|
E  :------------------|-----------------------|------------------|

E  :------------------|------------------|------------------|
B  :------------------|------------------|------------------|
G  :7---7-7---7-7-(7)-|7---7-7---7-7-(7)-|9---9-9---9-9-(9)-|
D  :7---7-7---7-7-(7)-|7---7-7---7-7-(7)-|9---9-9---9-9-(9)-|
A  :5---5-5---5-5-(5)-|5---5-5---5-5-(5)-|7---7-7---7-7-(7)-|
E  :------------------|------------------|------------------|

E  :-----------------------|------------------|------------------|
B  :-----------------------|------------------|------------------|
G  :10-10-*-10-*-10---(10)-|9---9-9---9-9-(9)-|7---7-7---7-7-(7)-|
D  :10-10---10---10---(10)-|9---9-9---9-9-(9)-|7---7-7---7-7-(7)-|
A  :-8--8----8----8---(-8)-|7---7-7---7-7-(7)-|5---5-5---5-5-(5)-|
E  :-----------------------|------------------|------------------|

E  :------------------|------------------|-----------------------|
B  :------------------|------------------|-----------------------|
G  :7---7-7---7-7-(7)-|9---9-9---9-9-(9)-|10-10-*-10-*-10---(10)-|
D  :7---7-7---7-7-(7)-|9---9-9---9-9-(9)-|10-10---10---10---(10)-|
A  :5---5-5---5-5-(5)-|7---7-7---7-7-(7)-|-8--8----8----8---(-8)-|
E  :------------------|------------------|-----------------------|

E  :----------------|----------------------|----------------|
B  :----------------|----------------------|----------------|
G  :----------------|----------------------|9---9-9---9-9-9-|
D  :7---7-7---7-7-7-|10---10-10---10-10-10-|9---9-9---9-9-9-|
A  :7---7-7---7-7-7-|10---10-10---10-10-10-|7---7-7---7-7-7-|
E  :5---5-5---5-5-5-|-8----8--8----8--8--8-|----------------|

E  :-----------------------|----------------|----------------------|
B  :-----------------------|----------------|----------------------|
G  :10-10-*-10-*-10---(10)-|----------------|----------------------|
D  :10-10---10---10---(10)-|7---7-7---7-7-7-|10---10-10---10-10-10-|
A  :-8--8----8----8---(-8)-|7---7-7---7-7-7-|10---10-10---10-10-10-|
E  :-----------------------|5---5-5---5-5-5-|-8----8--8----8--8--8-|

E  :----------------|-----------------------|----------------|
B  :----------------|-----------------------|----------------|
G  :9---9-9---9-9-9-|10-10-*-10-*-10---(10)-|----------------|
D  :9---9-9---9-9-9-|10-10---10---10---(10)-|5---5-5---5-5-5-|
A  :7---7-7---7-7-7-|-8--8----8----8---(-8)-|5---5-5---5-5-5-|
E  :----------------|-----------------------|3---3-3---3-3-3-|

E  :----------------|----------------|---------------------|
B  :----------------|----------------|---------------------|
G  :7---7-7---7-7-7-|9---9-9---9-9-9-|10-10---10---10---10-|
D  :7---7-7---7-7-7-|9---9-9---9-9-9-|10-10---10---10---10-|
A  :5---5-5---5-5-5-|7---7-7---7-7-7-|-8--8----8----8----8-|
E  :----------------|----------------|---------------------|

E  :----------------|----------------|----------------|
B  :----------------|----------------|----------------|
G  :----------------|7---7-7---7-7-7-|9---9-9---9-9-9-|
D  :5---5-5---5-5-5-|7---7-7---7-7-7-|9---9-9---9-9-9-|
A  :5---5-5---5-5-5-|5---5-5---5-5-5-|7---7-7---7-7-7-|
E  :3---3-3---3-3-3-|----------------|----------------|

E  :---------------------|------------------|------------------|
B  :---------------------|------------------|------------------|
G  :10-10---10---10---10-|9---9-9---9-9-(9)-|7---7-7---7-7-(7)-|
D  :10-10---10---10---10-|9---9-9---9-9-(9)-|7---7-7---7-7-(7)-|
A  :-8--8----8----8----8-|7---7-7---7-7-(7)-|5---5-5---5-5-(5)-|
E  :---------------------|------------------|------------------|

E  :------------------|------------------|-----------------------|
B  :------------------|------------------|-----------------------|
G  :7---7-7---7-7-(7)-|9---9-9---9-9-(9)-|10-10-*-10-*-10---(10)-|
D  :7---7-7---7-7-(7)-|9---9-9---9-9-(9)-|10-10---10---10---(10)-|
A  :5---5-5---5-5-(5)-|7---7-7---7-7-(7)-|-8--8----8----8---(-8)-|
E  :------------------|------------------|-----------------------|

E  :------------------|------------------|------------------|
B  :------------------|------------------|------------------|
G  :9---9-9---9-9-(9)-|7---7-7---7-7-(7)-|7---7-7---7-7-(7)-|
D  :9---9-9---9-9-(9)-|7---7-7---7-7-(7)-|7---7-7---7-7-(7)-|
A  :7---7-7---7-7-(7)-|5---5-5---5-5-(5)-|5---5-5---5-5-(5)-|
E  :------------------|------------------|------------------|

E  :------------------|-----------------------|------------------|
B  :------------------|-----------------------|------------------|
G  :9---9-9---9-9-(9)-|10-10-*-10-*-10---(10)-|9---9-9---9-9-(9)-|
D  :9---9-9---9-9-(9)-|10-10---10---10---(10)-|9---9-9---9-9-(9)-|
A  :7---7-7---7-7-(7)-|-8--8----8----8---(-8)-|7---7-7---7-7-(7)-|
E  :------------------|-----------------------|------------------|

E  :------------------|------------------|------------------|
B  :------------------|------------------|------------------|
G  :7---7-7---7-7-(7)-|7---7-7---7-7-(7)-|9---9-9---9-9-(9)-|
D  :7---7-7---7-7-(7)-|7---7-7---7-7-(7)-|9---9-9---9-9-(9)-|
A  :5---5-5---5-5-(5)-|5---5-5---5-5-(5)-|7---7-7---7-7-(7)-|
E  :------------------|------------------|------------------|

E  :-----------------------|------------------|------------------|
B  :-----------------------|------------------|------------------|
G  :10-10-*-10-*-10---(10)-|9---9-9---9-9-(9)-|7---7-7---7-7-(7)-|
D  :10-10---10---10---(10)-|9---9-9---9-9-(9)-|7---7-7---7-7-(7)-|
A  :-8--8----8----8---(-8)-|7---7-7---7-7-(7)-|5---5-5---5-5-(5)-|
E  :-----------------------|------------------|------------------|

E  :------------------|------------------|--------------------|
B  :------------------|------------------|--------------------|
G  :7---7-7---7-7-(7)-|9---9-9---9-9-(9)-|10-10-*-10-*-10-*---|
D  :7---7-7---7-7-(7)-|9---9-9---9-9-(9)-|10-10---10---10-----|
A  :5---5-5---5-5-(5)-|7---7-7---7-7-(7)-|-8--8----8----8-----|
E  :------------------|------------------|--------------------|
            
Hard to play? Try these video lessons and learn fast. | Correct




comments powered by Disqus
↑ Back to top | Tablatures and chords are parodies/interpretations of the original songs. You may use it for private study, scholarship, research or language learning purposes only