» » »

Attitude Tabs (ver.2)

Artists:  A B C D E F G H I J K L M N O P Q R S T U V W X Y Z # 

Attitude Tabs (ver.2)

Misfits
Rating:
0/5 (0 votes)

Tabs too difficult? Try these video lessons and learn fast.
                
normal tuning - E A D G B E

i think this close to 100% right. listen to song for rythems 
and  the order of the riffs.

-|-------------|-------------|-------------|-------------|--------------------
-|-------------|-------------|-------------|-------------|--------------------
-|-------------|-------------|-------------|-------------|--------------------
-|-------------|-------------|-------------|-------------|--------------------
-|-12-12-12-12-|-12-12-12-12-|-12-12-12-12-|-12-12-12-12-|--------------------
-|-10-10-10-10-|-10-10-10-10-|-10-10-10-10-|-10-10-10-10-|--------------------
 pm..................................................... repeat- intro riff   

-|-------------|-------------|-------------|-------------|--------------------
-|-------------|-------------|-------------|-------------|--------------------
-|-------------|-------------|-------------|-------------|--------------------
-|-------------|-------------|-12-12-12-12-|-12-12-12-12-|--------------------
-|-12-12-12-12-|-12-12-12-12-|-10-10-10-10-|-10-10-10-10-|--------------------
-|-10-10-10-10-|-10-10-10-10-|-------------|-------------|--------------------
   Verse Riff              Play 4 Times                                       

-|-------------|-------------|-------------|-------------|-------------|------
-|-------------|-------------|-------------|-------------|-------------|------
-|-------------|-------------|-------------|-------------|-------------|------
-|-11-11-11-11-|-12-12-12-12-|-11-11-11-11-|-12-12-12-12-|-14-14-14-14-|------
-|-9--9--9--9--|-10-10-10-10-|-9--9--9--9--|-10-10-10-10-|-12-12-12-12-|------
-|-------------|-------------|-------------|-------------|-------------|------
  play first 3 measures 4 times each...then play last 2 measures 2 times ea.  

-|-------------|-------------|------------------------------------------------
-|-------------|-------------|------------------------------------------------
-|-14-14-14-14-|-16-16-16-16-|------------------------------------------------
-|-12-12-12-12-|-14-14-14-14-|------------------------------------------------
-|-------------|-------------|------------------------------------------------
-|-------------|-------------|------------------------------------------------
    little solo bridge riff thing        play each measure 2 times
            
Tabs too difficult? Try these video lessons and learn fast.




comments powered by Disqus
↑ Back to top | Tablatures and chords are parodies/interpretations of the original songs. You may use it for private study, scholarship, research or language learning purposes only