» » »

Misfits, Angel*** Bass tabs (ver.1)

Artists:  A B C D E F G H I J K L M N O P Q R S T U V W X Y Z # 

Angel*** Bass tabs (ver.1)

Misfits Tabs
 Rating:
4/5 (4 votes)
Angel***  lessons Tabs too difficult? Try these video lessons and learn fast
1
                (1)
Tuning: Standard


palm muting = .
slide  =  /
let ring  = r

Intro 
G----------------
D----------------
A----------------
E-5-5-5-5-5-5-5--

Verse 
G-----------------------------------
D-----------------------------------
A-----------------5-5-5-5-5-5-5-5---
E-5-5-5-5-5-5-5-5-------------------

Pre Chorus
G----------------------------------------------------------------------
D----------------------------------------------------------------------
A----------------------------------5-5-5-5-5-5-5-5-7-7-7-7-7-7-7-7-----
E-2-2-2-2-2-2-2-2-0-0-0-0-0-0-0-0--------------------------------------

Chorus
G--------------------------
D--------------------------
A------------------5-5-----
E-5-5-5-5-5-5-5-5----------

Outro
G---------
D---------
A---------
E--5------

Order
Intro        1x
Verse        2x
Pre Chorus   1x
Verse        2x
Pre Chorus   1x
Chorus       4x
Verse        1x
Pre Chorus   1x
Chorus       4x
Outro
            
Submit corrections

comments powered by Disqus
↑ Back to top | Misfits Bass for Angel***. Lyrics for acoustic guitar and electric guitar. 1 Tablatures and chords are parodies/interpretations of the original songs. You may use it for private study, scholarship, research or language learning purposes only