» » »

Angel*** Tabs (ver.1)

Artists:  A B C D E F G H I J K L M N O P Q R S T U V W X Y Z # 

Angel*** Tabs (ver.1)

Misfits
Rating:
0/5 (0 votes)

Hard to play? Try these video lessons and learn fast.
                Tuning: Standard


palm muting = .
slide  =  /
let ring  = r

Intro 
E----------------
B----------------
G----------------
D-7-7-7-7-7-7-7--
A-7-7-7-7-7-7-7--
E-5-5-5-5-5-5-5--

Verse 
E-----------------------------------
B-----------------------------------
G-----------------7-7-7-7-7-7-7-7---
D-7-7-7-7-7-7-7-7-7-7-7-7-7-7-7-7---
A-7-7-7-7-7-7-7-7-5-5-5-5-5-5-5-5---
E-5-5-5-5-5-5-5-5-------------------

Pre Chorus
E------------------------------------------------------------------
B------------------------------------------------------------------
G---------------------------------7-7-7-7-7-7-7-7-9-9-9-9-9-9-9-9--
D-4-4-4-4-4-4-4-4-2-2-2-2-2-2-2-2-7-7-7-7-7-7-7-7-9-9-9-9-9-9-9-9--
A-4-4-4-4-4-4-4-4-2-2-2-2-2-2-2-2-5-5-5-5-5-5-5-5-7-7-7-7-7-7-7-7--
E-2-2-2-2-2-2-2-2-0-0-0-0-0-0-0-0----------------------------------

Chorus
E--------------------------
B--------------------------
G------------------7-7-----
D-7-7-7-7-7-7-7-7--7-7-----
A-7-7-7-7-7-7-7-7--5-5-----
E-5-5-5-5-5-5-5-5----------

Outro
E---------
B---------
G---------
D--7------
A--7------
E--5------

Order
Intro        1x
Verse        2x
Pre Chorus   1x
Verse        2x
Pre Chorus   1x
Chorus       4x
Verse        1x
Pre Chorus   1x
Chorus       4x
Outro
            
Hard to play? Try these video lessons and learn fast. | Correct




comments powered by Disqus
↑ Back to top | Tablatures and chords are parodies/interpretations of the original songs. You may use it for private study, scholarship, research or language learning purposes only