» » »

Laki Sa Layaw Tabs (ver.2)

Artists:  A B C D E F G H I J K L M N O P Q R S T U V W X Y Z # 

Laki Sa Layaw Tabs (ver.2)

Mike Hanopol
Rating:
0/5 (0 votes)

Hard to play? Try these video lessons and learn fast.
                Laki sa layaw(Jeproks)

Pinoy kasi tayo kaya tinagalog ko na. Eto naman ang bersyon ko...

Beysik Rip tong ginawa ko, mga p're. Kung may kulang o mali yung ginawa ko,


Intro:

Riff 1
||--------------------------|
||--------------------------|    Sa pagkakaintindi ko, umikot siya sa G Major
||--------------------------|    kaya 'yung iskala ay naglaro
||--------------------------|    sa E minor pentatonic. Dali lang 'no?
||---------------2-----2----|
||--0-h-3-h-5-------3-------|


Riff 2
|------------------------------------------------------------------||
|------------------------------------------------------------------||
|------------------------------------------------------------------||
|------------------------------------------------------------------||
|--2-p-0---------5-/-7--5---4--5--7---7-p-5--------------7---------||
|--------0--3--------------------------------7-p-5----0------------||



Stanza:


   E5                                    B5
|--------------------------------------|--------------------------------------|
|--------------------------------------|--------------------------------------|
|--9--9--X--X--X--X--9--9--X--X--X--X--|--------------------------------------|
|--9--9--X--X--X--X--9--9--X--X--X--X--|--9--9--X--X--X--X--9--9--X--X--X--X--|
|--7--7--X--X--X--X--7--7--X--X--X--X--|--9--9--X--X--X--X--9--9--X--X--X--X--|
|--------------------------------------|--7--7--X--X--X--X--7--7--X--X--X--X--|


   G5                A5              (1,3)E5                                  

|--------------------------------------|--------------------------------------|
|--------------------------------------|--------------------------------------|  
|--------------------------------------|--9--9--X--X--X--X--9--9--X--X--X--X--|
|--5--5--X--X--X--X--7--7--X--X--X--X--|--9--9--X--X--X--X--9--9--X--X--X--X--|
|--5--5--X--X--X--X--7--7--X--X--X--X--|--7--7--X--X--X--X--7--7--X--X--X--X--|
|--3--3--X--X--X--X--5--5--X--X--X--X--|--------------------------------------|


                                      (2) Riff 3 w/Fill 1
 
   G5                A5                  E5                                  

                                       |------------------------|----------------------|
                                       |------------------------|----------------------|
                                       |------------------------|-------------9--------|
                                       |------------------------|-------------9--------|
                                       |--2--2-------5--5-------|--7--7----5--7--------|
                                       |--0--0--0-2--3--3--3-4--|--5--5--5-------------|


                                      (4) Riff 4

   G5                A5                  E5                                  

                                       |------------------------||
                                       |------------------------||
                                       |------------------------||
                                       |--9--9------------------||
                                       |--7--7------------------||
                                       |--------0-2--3~~~-------||



Refrain:

    G#5                                    C#m5
||--------------------------------------|--------------------------------------|
||--------------------------------------|--------------------------------------|
||--------------------------------------|--6--X--X--6--X--X--6--X--X--6--X--X--|
||--6--X--X--6--X--X--6--X--X--6--X--X--|--6--X--X--6--X--X--6--X--X--6--X--X--|
||--6--X--X--6--X--X--6--X--X--6--X--X--|--4--X--X--4--X--X--4--X--X--4--X--X--|
||--4--X--X--4--X--X--4--X--X--4--X--X--|--------------------------------------|

                     (1) Riff 5
    A5       B5          E5
||--------------------|----------------|
||--------------------|----------------|
||--2--------4--------|--9-------------|
||--2--------4--------|--9-------------|
||--0--------2--------|--7-------------|
||--------------------|-----0-2--3~~~--|

                     (2) Riff 6
    A5       B5          E5
                      |----------------||
                      |----------------||
                      |--9-------------||
                      |--9-------------||
                      |--7-------------||
                      |----------------||


Chorus:

                                         w/Fill 2
    A                                      B                                  (3x)
||--5--5--X--X--X--X--5--5--X--X--X--X--|--7--7--X--X--X--X--7--7--X--X--X--X--|
||--5--5--X--X--X--X--5--5--X--X--X--X--|--7--7--X--X--X--X--7--7--X--X--X--X--|
||--6--6--X--X--X--X--6--6--X--X--X--X--|--8--8--X--X--X--X--8--8--X--X--X--X--|
||--7--7--X--X--X--X--7--7--X--X--X--X--|--9--9--X--X--X--X--9--9--X--X--X--X--|
||--7--7--X--X--X--X--7--7--X--X--X--X--|--9--9--X--X--X--X--9--9--X--X--X--X--|
||--5--5--X--X--X--X--5--5--X--X--X--X--|--7--7--X--X--X--X--7--7--X--X--X--X--|


    A                                      
|--5--5--X--X--X--X--5--5--X--X--X--X--|--
|--5--5--X--X--X--X--5--5--X--X--X--X--|--
|--6--6--X--X--X--X--6--6--X--X--X--X--|--  Do Intro
|--7--7--X--X--X--X--7--7--X--X--X--X--|--  Riff 1
|--7--7--X--X--X--X--7--7--X--X--X--X--|--
|--5--5--X--X--X--X--5--5--X--X--X--X--|--


Fill 1
             
||--12------------------------------|-----------------------||
||--15b(17)--15--15--15-14--14--14--|--14-12--12~~~~~~~~----||
||----------------------------------|---------14b(16)~~~----||
||----------------------------------|-----------------------||
||----------------------------------|-----------------------||
||----------------------------------|-----------------------||

Fill 2
(Piano)

||------------------|-------------------------||
||--5------5---5----|--7----------------------||
||--6------6---6----|--8-----8-9---11--9-8----||
||--7----7---7------|--9---9------------------||
||------------------|-------------------------||
||------------------|-------------------------||




===============================================================

Intro: 

Stanza:
May mga taong lumaki sa hirap
Merong laki sa layaw, puro sarap
Kung siya'y titigan mo, akala mo kung sino
Hindi na bumababa sa kanyang trono.

Lahat ng gusto niya, ibinigay na sa kanya
Ngunit wala pa rin siyang kasiyahan
Hindi pa makuntento sa kanyang mga bisyo
Nilubog pa n'ya ang sarili sa putik.

Refrain
Kilala sa bayan, asal ay gahaman
Malakas sa inuman, istorbo sa daan
Meron pa kayang pag-asang magbago
Ang taong lumaki sa layaw?

Chorus:
Laki sa layaw, laki sa layaw, jeproks
Laki sa layaw, laki sa layaw, jeproks
Laki sa layaw, laki sa layaw, jeproks

Ad lib:

Sobra sa bigat, hindi na mabuhat
Sobra sa tamad, laging hubad
Hindi na n'ya mapigilan ang kanyang mga bisyo
Kaya ang bagsak niya'y sa kalaboso.

Repeat Refrain & Chorus
            
Hard to play? Try these video lessons and learn fast. | Correct




comments powered by Disqus
↑ Back to top | Tablatures and chords are parodies/interpretations of the original songs. You may use it for private study, scholarship, research or language learning purposes only