» » »

Mike Hanopol, No Touch Bass tabs (ver.1)

Artists:  A B C D E F G H I J K L M N O P Q R S T U V W X Y Z # 

No Touch Bass tabs (ver.1)

Mike Hanopol Tabs
 Rating:
4/5 (5 votes)
No Touch lessons Tabs too difficult? Try these video lessons and learn fast
                Intro:

G|-----------|
D|-----------|
A|-x7-5-x4---|
E|---------7-|

G|-------------|-----------|
D|-------------|-7---------|
A|-------7h9-7-|---9-7-7h9-|
E|-5-7h9-------|-----------| 2x

Verse I:
Ded na ded talaga . . .
G|-------------|-----------|
D|-------------|-7---------|
A|-------7h9-7-|---9-7-7h9-|
E|-5-7h9-------|-----------| 2x

G|-------------|-7---------|
D|-------7h9-7-|---9-7-7h9-|
A|-5-7h9-------|-----------| 
E|-------------|-----------|

G|-------------|-----------|
D|-------------|-7---------|
A|-------7h9-7-|---9-7-7h9-|
E|-5-7h9-------|-----------| 

G|---------|--------|---------|--------|--------|----------|
D|---------|--------|---------|--------|--------|----------|
A|--5-55-5-|------4-|--5-55-5-|------4-|-5-55-5-|-x7-5-4---|
E|---------|-7-77---|---------|-7-77---|--------|--------7-|

G|-------------|-----------|
D|-------------|-7---------|
A|-------7h9-7-|---9-7-7h9-|
E|-5-7h9-------|-----------| 2x

Verse II:  Do Verse I pattern
Nuon pa man, ikaw na talaga . . .

Chorus I:
Pahipo naman . . .
G|---------|---------|---------|---------|---------|---------|---------|
D|-4-44-x6-|-7-77-x6-|-4-44-x6-|-7-77-x6-|-4-44-x6-|-7-77-x6-|-4-44-x6-|
A|---------|---------|---------|---------|---------|---------|---------|
E|---------|---------|---------|---------|---------|---------|---------|

G|-----------------|-----------------|---------|-----------|
D|-----------------|-----------------|---------|-----------|
A|-777-777-777-777-|-577-777-777-777-|-5-5-5-5-|-3h5-5-5-5-|
E|-----------------|-----------------|---------|-----------|

G|-------------|-----------|---------|-----------|
D|-------------|-7---------|---------|-----------|
A|-------7h9-7-|---9-7-7h9-|-5-5-5-5-|-3h5-5-5-5-|
E|-5-7h9-------|-----------|---------|-----------| 2x

G|---------|-----------|
D|---------|-----------|
A|-7-7-7-7-|-x7-5-x4---|
E|---------|---------7-|

Verse III: Do Verse I pattern
Paglumakad na, ika’y nakakatukso . . .

Chorus II:
Pahipo naman . . .
G|---------|---------|---------|---------|---------|---------|---------|
D|-4-44-x6-|-7-77-x6-|-4-44-x6-|-7-77-x6-|-4-44-x6-|-7-77-x6-|-4-44-x6-|
A|---------|---------|---------|---------|---------|---------|---------|
E|---------|---------|---------|---------|---------|---------|---------|

G|-----------------|-----------------|
D|-----------------|-----------------|
A|-7-7-7-7-7-7-7-7-|-577-777-777-777-|
E|-----------------|-----------------|

G|---------|--------|---------|--------|--------|----------|
D|---------|--------|---------|--------|--------|----------|
A|--5-55-5-|------4-|--5-55-5-|------4-|-5-55-5-|-x7-5-4---|
E|---------|-7-77---|---------|-7-77---|--------|--------7-|

G|-------------|-----------|
D|-------------|-7---------|
A|-------7h9-7-|---9-7-7h9-|
E|-5-7h9-------|-----------| 2x

Outro:
Kailangan ko ang iyong labi . . .
G|---------|--------|---------|--------|--------|----------|
D|---------|--------|---------|--------|--------|----------|
A|--5-55-5-|------4-|--5-55-5-|------4-|-5-55-5-|-x7-5-4---|
E|---------|-7-77---|---------|-7-77---|--------|--------7-|

G|-------------|---|---|
D|-------------|-7-|---|
A|-------7h9-7-|---|---|
E|-5-7h9-------|---|-5-|
            
Submit corrections

comments powered by Disqus
↑ Back to top | Mike Hanopol Bass for No Touch. Lyrics for acoustic guitar and electric guitar. Tablatures and chords are parodies/interpretations of the original songs. You may use it for private study, scholarship, research or language learning purposes only