» » »

Mike Hanopol, Laki Sa Layaw Tabs (ver.1)

Artists:  A B C D E F G H I J K L M N O P Q R S T U V W X Y Z # 

Laki Sa Layaw Tabs (ver.1)

Mike Hanopol Tabs
Rating:
0/5 (0 votes)
Laki Sa Layaw lessons Tabs too difficult? Try these video lessons and learn fast
                Laki sa layaw(Jeproks)

I’ll take and praise or harsh thoughts……


Intro: riff 1  
|------------------------
|------------------------
|------------------------
|------------------------
|---------------2----2--
|--0-h-2-h-4----4-----

Intro: continued (riff 2)
|-----------------------------------------------------------------------------------------------------
|-----------------------------------------------------------------------------------------------------
|-----------------------------------------------------------------------------------------------------
|----------------------------------------------------------------------------2----2------------------
|-------------------5-\-7-----5-----3-----5------5-\-7-------0-h-2-h-4----4---------------------
|--0 h-2-h-4--3------------------------------------------------------------------------------------


Then just play the stanza part twice then quickly go into this riff

Guitar 1                                                                             | 
|--------------------------------------------------------------------------------------------------------------
|----15-b-17----15-15----14-h-15-----14-14-----12-b-14---~14---------------------------------------
|--------------------------------------------------------------------------------------------------------------
|--------------------------------------------------------------------------------------------------------------
|--------------------------------------------------------------------------------------------------------------
|--------------------------------------------------------------------------------------------------------------

Play this part w/ the guitar 1

Guitar 2                                                            
|----------------------------------------------------------------------------------------------------------------
|----------------------------------------------------------------------------------------------------------------
|----------------------------------------------------------------------------------------------------------------
|----------------------------------------------------------------------------------------------------------------
|-----5-h-7-------5-5----4-h-5-----4-4----2-h-4---~2-------------------------------------------------------
|----------------------------------------------------------------------------------------------------------------


Play this riff after the second stanza and the third stanza.just before the refrain (riff 3)

---------P.M.-----------
|-------------------------
|-------------------------
|-------------------------
|---2---0---4----5------
|---2---0---4----5------
|---0---0---2----3------








This part is where you play the keyboard at the chorus part (I don’t know if its accurate but the hell..I’llput in anyway……)

|--------------7--9--7---------------------------------------------------------
|------8--9-------------9--8--9-----------------------------------------------
|--------------------------------------------------------------------------------
|--------------------------------------------------------------------------------
|--------------------------------------------------------------------------------
|--------------------------------------------------------------------------------


                    
               
|--------------------------------------------------------------------------------------------------------------------------------
|---12-b-14-----~12-----12--10------10---13------------------------------7---9---10-\-12----9-------------12--15----
|-----------------------------------12------------9-\-11---------6--7--9-----------------------------9-----13---------------
|-----------------------------------------------------------7--9----------------------------------------------------------------
|--------------------------------------------------------------------------------------------------------------------------------
|--------------------------------------------------------------------------------------------------------------------------------


|------------------------------------------------------15--12--------12--15---17--14-----14---17----17-b-19---17-b-19
|--15-\-~17------15--12------12----15-----12-------------15-----------------------17------------------------------------
|----------------------------13------------13----------------------------------------------------------------------------------
|--------------------------------------------------------------------------------------------------------------------------------
|--------------------------------------------------------------------------------------------------------------------------------
|--------------------------------------------------------------------------------------------------------------------------------

|---17-b-19----(19)------------------------------------
|----------------------------------------------------------
|----------------------------------------------------------
|----------------------------------------------------------
|----------------------------------------------------------
|----------------------------------------------------------

Intro: B/F#-break
       G-B/F#-Em break

 E                B
May mga taong lumaki sa hirap
   G              A           E
Merong laki sa layaw, puro sarap
        E                B
Kung siya'y titigan mo, akala mo kung sino
   G           A              E F#, G.G.G#, A.A.D, E break
Hindi na bumababa sa kanyang trono.

   E                       B
Lahat ng gusto niya, ibinigay na sa kanya
    G                 A       E
Ngunit wala pa rin siyang kasiyahan
   E                       B
Hindi pa makuntento sa kanyang mga bisyo
     G                A          E  F#, G,
Nilubog pa n'ya ang sarili sa putik.

Refrain
    G#           C#m
Kilala sa bayan, asal ay gahaman
     A         B                E  F#, G,
Malakas sa inuman, istorbo sa daan
G#                  C#m
Meron pa kayang pag-asang magbago
    A         B        E
Ang taong lumaki sa layaw?

Chorus
  A                               B
Laki sa layaw, laki sa layaw, jeproks
  A                               B
Laki sa layaw, laki sa layaw, jeproks
  A                               B/F#-break
Laki sa layaw, laki sa layaw, jeproks

Ad lib: E-B-G-A-E-
        E-B-G-A-B/F#-
        G-B/F#-Em break

 E                 B
Sobra sa bigat, hindi na mabuhat
 G          A             E
Sobra sa tamad, laging hubad
   E                            B
Hindi na n'ya mapigilan ang kanyang mga bisyo
  G                A          E    F#, G,
Kaya ang bagsak niya'y sa kalaboso.

Repeat Refrain & Chorus

Illustrated Chord:

B/F# 033300


This are some of the symbols I used to this tab….

5\7        =      slide the picked note (5) to the 7th fret
4h5       =       pick the note (4) and hammer-on the 5th fret
17b19   =       pick the note (17) and bend to the tone of the 19th fret
~2        =        pick the note (2) and let ring and give it the feel of a vibrato
            

comments powered by Disqus
↑ Back to top | Mike Hanopol Tabs for Laki Sa Layaw. Lyrics for acoustic guitar and electric guitar. Tablatures and chords are parodies/interpretations of the original songs. You may use it for private study, scholarship, research or language learning purposes only