» » »

Mighty Mighty Bosstones, The Impression That I Get Tabs (ver.3)

Artists:  A B C D E F G H I J K L M N O P Q R S T U V W X Y Z # 

The Impression That I Get Tabs (ver.3)

Mighty Mighty Bosstones Tabs
 Rating:
4/5 (4 votes)
The Impression That I Get lessons Tabs too difficult? Try these video lessons and learn fast
1
                he Impression That i Get 
The Mighty Mighty Bosstones


Intro 
Clean
E|4--4--x--7--7--x--4--4--x--4--4--x--5--5--x--4--4--x--4--4--x--7--7--x--|
B|5--5--x--7--7--x--5--5--x--4--4--x--5--5--x--5--5--x--5--5--x--7--7--x--|
G|4--4--x--8--8--x--4--4--x--4--4--x--6--6--x--4--4--x--4--4--x--8--8--x--|
D|------------------------------------------------------------------------|
A|------------------------------------------------------------------------|
E|------------------------------------------------------------------------|
Trumpet Starts

E|4--4--x--7--7--x--4--4--x--4--4--x--5--5--x--4--4--x--4--4--x--7--7--x--|
B|5--5--x--7--7--x--5--5--x--4--4--x--5--5--x--5--5--x--5--5--x--7--7--x--|
G|4--4--x--8--8--x--4--4--x--4--4--x--6--6--x--4--4--x--4--4--x--8--8--x--|
D|------------------------------------------------------------------------|
A|------------------------------------------------------------------------|
E|------------------------------------------------------------------------|

Verse
Clean Ska 
E--B--|A----| Times 8
Pre Chorus
F#m--A--|F#m--A--| 
Chorus
E----|B----|C#m----|A----|2 Times

Verse Play like first.
Pre Chorus like first
Chorus like first
Then The Pre chorus again
Then
E|4--4--x--7--7--x--4--4--x--4--4--x--5--5--x--4--4--x--4--4--x--7--7--x--|
B|5--5--x--7--7--x--5--5--x--4--4--x--5--5--x--5--5--x--5--5--x--7--7--x--|
G|4--4--x--8--8--x--4--4--x--4--4--x--6--6--x--4--4--x--4--4--x--8--8--x--|
D|------------------------------------------------------------------------|
A|------------------------------------------------------------------------|
E|------------------------------------------------------------------------|

E|4--4--x--7--7--x--4--4--x--4--4--x--5--5--x--4--4--x--4--4--x--7--7--x--|
B|5--5--x--7--7--x--5--5--x--4--4--x--5--5--x--5--5--x--5--5--x--7--7--x--|
G|4--4--x--8--8--x--4--4--x--4--4--x--6--6--x--4--4--x--4--4--x--8--8--x--|
D|------------------------------------------------------------------------|
A|------------------------------------------------------------------------|
E|------------------------------------------------------------------------|
Then chorus and thats it
            
Submit corrections

comments powered by Disqus
↑ Back to top | Mighty Mighty Bosstones Tabs for The Impression That I Get. Lyrics for acoustic guitar and electric guitar. 1 Tablatures and chords are parodies/interpretations of the original songs. You may use it for private study, scholarship, research or language learning purposes only