» » »

The Impression That I Get Tabs (ver.2)

Artists:  A B C D E F G H I J K L M N O P Q R S T U V W X Y Z # 

The Impression That I Get Tabs (ver.2)

Mighty Mighty Bosstones
Rating:
0/5 (0 votes)

Hard to play? Try these video lessons and learn fast.
                This song is pretty simple, it is based on arpeggios both Major and minor. The song is played in E Major but if you have horns in it in easier to play in Eb Major. The song is in 2/4 or 4/8 depending what is easier for your conception. The song has about 3 different riffs. An Intro- which is the same as the verse and the outro. A Pre-chorus which is the same as the bridge and lastly a Chorus.

Intro, verse, outro - all based on quavers.
   
G ||----------------------|---------------------|--------------------|------------------||
D ||--------------5-----8|----------------------| -------------------|------------------||  
A ||---X----6------------|-----------5-----8---| -------------------|-4---7---4----7--||
E ||----------------------|-X---6---------------|--X---3---6----3-|-------------------||
Pre-chorus, Bridge - work out the timing yourself, real easy.
G ||------------------||
D ||------------------|| X 2
A ||------------------||
E ||---1--------4-----||
Chorus - Again use your ears, simple timing. Quavers or semi-quavers, time signature.
G ||------------------|------------------|------------------|------------------||
D ||------------------|------------------|------------------|-------------------||  
A ||----66666666---|------------------|------------------|-------------------||
E ||------------------|----66666666---|----33333333----|----444444444---||
Well thats it, pretty simple. Just get the timing and the rest will fit in place.
            
Hard to play? Try these video lessons and learn fast. | Correct




comments powered by Disqus
↑ Back to top | Tablatures and chords are parodies/interpretations of the original songs. You may use it for private study, scholarship, research or language learning purposes only