» » »

Mighty Mighty Bosstones, So Sad To Say Tabs (ver.1)

Artists:  A B C D E F G H I J K L M N O P Q R S T U V W X Y Z # 

So Sad To Say Tabs (ver.1)

Mighty Mighty Bosstones Tabs
 Rating:
4/5 (4 votes)
So Sad To Say lessons Tabs too difficult? Try these video lessons and learn fast
                Mighty Mighty Bosstones - "So sad to say"

I got all this pretty easily. It's not a hard song to play. I'm almost positive that everything is correct. The only part I had trouble with was the bridge, there's some weird stuff in there where the two guitars play together. You'll hear what I'm talking about.


Intro:
B|-----------------------------------------------------------------------------|
G|-----3---5----7-7-7--5------------------3---5-----7-8-10-8-7--7-8-10-8-7-| 
D|------3~---3~-----------8-8--10--8~~----3~--3~---------------------------8~|

B|------------------------------|
G|--7-8-10-8-7--8-7--7p5---|
D|---------------------------8~|

Verse: 

Power chords:
I can't tell what the last chord is but I think I'm right. 
The chords for the chorus should be the same or a different arrangement of these three chords.

D|--8---3---5---3--|
A|--8---3---5---3--|
E|--6---1---3---1--|

Fill 1:                                 
B|---------------------|        
G|--8-7-8-7-5h7p5--|        
D|---------------------|        

Pre-chorus:
Fill 2:
B|----------------------|
G|--10-10-10-10-9-7~-|
D|--10-10-10-10-------|

I've translated the horn parts into guitar tablature.

Chorus:
Horn fill 1:
B|----------|
G|--3-5-7~|
D|----------|
 
Horn fill 2:
B|------------------|
G|--8-7---------7~|
D|------10-8-10---|

Verse 2:

Horn fill 3:
B|-----------------|
G|--3-3-5---3-5~|
D|---------3------|

Fill 1:                                 
B|---------------------|        
G|--8-7-8-7-5h7p5---|        
D|-------------------8~|

Horn fill 4:
B|----------------|
G|--7-7-5----7~-|
D|---------7-8---|

PRE-CHORUS

CHORUS

Bridge:

B|-----------------------------------------------------------------------------|
G|-----3---5----7-7-7--5------------------3---5-----7-8-10-8-7--7-8-10-8-7-| 
D|------3~---3~-----------8-8--10--8~~----3~--3~---------------------------8~|

B|------------------------------|
G|--7-8-10-8-7--8-7--7p5---|
D|---------------------------8~|

B|--11--------------------|
G|----10~-12-12-10-12~-|
D|------------------------|

B|---------------------|        
G|--8-7-8-7-5h7p5--|        
D|---------------------|

CHORUS

Outro:

B|--18-18-15-16-15---------18-18-15-16-15~--18-18-15-16-15------|
G|-------------------17-15~--------------------------------------15~--|
D|----------------------------------------------------------------------|

Guitar 1:
B|------------------------------------------------------------------|
G|--18~~~~~~~~~~-------18b20r18~~~~~~~~------------------|
D|------------------------------------------------------------------|

Guitar 2:
B|-----------------------------------------------------------------|
G|--7-8-10-8-7~-7-8-10-8-7------7-8-10-8-7--8-7-5~h7~----|
D|------------------------------8~~---------------------------8~~|
            
Submit corrections

comments powered by Disqus
↑ Back to top | Mighty Mighty Bosstones Tabs for So Sad To Say. Lyrics for acoustic guitar and electric guitar. Tablatures and chords are parodies/interpretations of the original songs. You may use it for private study, scholarship, research or language learning purposes only