» » »

Hell Of A Hat Tabs (ver.1)

Artists:  A B C D E F G H I J K L M N O P Q R S T U V W X Y Z # 

Hell Of A Hat Tabs (ver.1)

Mighty Mighty Bosstones
Rating:
4/5 (1 vote)

Hard to play? Try these video lessons and learn fast.
                E     C     D     Df     E     C     D(hold)
e:-----------------------------------------------------
B:9-----5-----7-----4------9-----5-----7---------------
G:9-----5-----7-----4------9-----5-----7---------------
D:9-----5-----7-----4------9-----5-----7---------------
A:7-----3-----5-----6------7-----3-----5-----7----5----
E:----------------------------------------------- 7----
  part A

   

   w/ska upbeat
e:---------------7----7----3----2--------
B:---------------7----7----3----3--------
G:---------------8----6----4----2--------
D:---------------9----7----5----0--------
A:---------------9----7----5----0--------
E:---------------7----5----3----2--------
     part B                     w/thumb



   chorus w/talk box
e:----------------------------------------------------------------------
B:----------------------------------------------------------------------
G:----------------------------------------------------------------------
D:---------------2------2------2---------------2------2------2----------
A:-------0h1h2------0----------------------2------0------------2-3-5-7-5
E:-------------0------0-----3-0----2-3-5-----0------0---3--0-----------7

              part C



   bridge                                                       back to
intro
e:----------------------------------------------------------------------
B:---------4------5----2--------------------------4----5------9---------
G:---------4------5----2-------------------1------4----5------9---------
D:---------4------5----2--------2-2-0------2------4----5------9---------
A:---------2------3----0--------------2-0--2------2----3------7---------
E:-------------------------0-3-0-----------0----------------------------

           part D

                 
                 
  -3x then solo              order:   Ax4
e:--------------|                     Bx8(?)
B:--------------|                     Cx1
G:--------------|                     Bx8(?)
D:--------------|                     Cx2
A:--------------|                     Bridge
E:--------------|                     A-End, let ring
            
Hard to play? Try these video lessons and learn fast. | Correct




comments powered by Disqus
↑ Back to top | Tablatures and chords are parodies/interpretations of the original songs. You may use it for private study, scholarship, research or language learning purposes only