>
 >
Hell Of A Hat 1

Hell Of A Hat 1 Guitar Tabs

Mighty Mighty Bosstones - Hell Of A Hat 1 chords, tabs, tablatures, lyrics

Guitar lessons | Add/correct | Request | Top 50 tabs Artists:  A B C D E F G H I J K L M N O P Q R S T U V W X Y Z 0-9

Hell Of A Hat 1 Guitar Tabs – Mighty Mighty Bosstones

CD, Sheet music, Poster

Do you like Hell Of A Hat 1? Share with your friends now
TabsTabs v2Tabs v3


This is a great song, when you are playing the ska upstrokes
during the verse, be sure to use some sort of a wah-wah
pedal. The guitar stops for 4 measures (i think) when Dickey
says (he grew up...) then you go into the solo. Good luck!

------------------------------------------------------------------------------|
----------------------------------------8-------------------------------------|
-9-99-9-----7-77-7------7-77-7----------0--9-99-9-----7-77-7-------9-99-9-----|
-9-99-9-5-5-7-77-72-2-5-7-77-7-5-5--7-9----9-99-9-5-5-7-77-7-2-2-5-9-99-9-5---|
-7-77-7-5-5-5-55-52-2-5-5-55-5-5-5---------7-77-7-5-5-5-55-5-2-2-5-7-77-7-5---|
--------3-3-------0-0-3--------3-3----------------3-3--------0-0-3--------3---|
  (PM)       (PM)        (PM)               (PM)       (PM)         (PM)

---------------x-x-7-7-x-x-7-7-x-x-5-5-x-x-5-5-x-x-10-10-10-7---------------7--|
---------------x-x-7-7-x-x-7-7-x-x-7-7-x-x-7-7-x-x-10-10-----10-8h10p8-8h10----|
---------------x-x-8-8-x-x-8-8-x-x-6-6-x-x-6-6-x-x-11-11-----------------------|
-5-----------------------------------------------------------------------------|
-5---2-------------------------------------------------------------------------|
-3-3---0-----------------------------------------------------------------------|
              (^-^^-^^-^^-^^-^^-^^-^^-^^play this  10 times^^-^^_^^-^^-^^-^^---|

-------12b-r------------------------------------------------------------------|
-10-8-------------------------------------------------------------------------|
-----------------9------7-----------------------------9-----7-------------9---|
-----------------9------7------7--2-0-----------------9-----7-----7-5-5-5-9---|
-------------7---7--5---5------7------2-0-0h2p0---7---7-5---5-----7-5-5-5-7---|
---------------0------0----5-0-5----------------3---0-----0---5-0-5-3-3-3-----|
 ^^-^)

-----------------x-x-7-7-x-x-7-7-x-x-5-5-x-x-5-5-x-x-10-10-x-x-10-10-10-7------|
-----------------x-x-7-7-x-x-7-7-x-x-7-7-x-x-7-7-x-x-10-10-x-x-10-10------10---|
---7-------------x-x-8-8-x-x-8-8-x-x-6-6-x-x-6-6-x-x-11-11-x-x-11-11-----------|
---7---------------------------------------------------------------------------|
---5---------------------------------------------------------------------------|
-0----x/-----------------------------------------------------------------------|
    (pick slide)(^^-^^_^^-^^_^^-^^_^^-^^-^^-play this 8 times-^^-^^-^^-^^-^^---|

--------7---------12b-r--------------------------------------------------------|
-8-8h10---10-8-----------------------------------------------------------------|
----------------------------9-----9--------------------------------------9-----|
----------------------------9-----9-----7-2-0----------------------------9-----|
------------------------7---7-5---5-----7-----2-0-0h2p0------2-222222-2--7-----|
--------------------------0-----0---5-0-5---------------3----0-000000-0--------|
 ^^-^^-^^-^^-^)        (^^-^^-play this 4 times^^-^^-^^-^^)   (--PM------------|

----------------12-12-10h12p10p7-----------------------------------------------|
-------------------------------------------------------------------------------|
-7-------------------------------9----7--------------9-999999-9-9---9-99-9-----|
-7----7----5-7-------------------9----7----7----5-7--9-999999-9-9---9-99-9-----|
-5----7----5-7-------------------7----5----7----5-7--7-777777-7-7---7-77-7-----|
------5----3-5-----------------------------5----3-5----------------------------|
                                                    (----PM--------------------|

------------------------------------------------------------------------------|
------------------------------------------------------------------------------|
------7-77-7--------9-99-9-----7-77-7----------------9-99-9-----7-77-7--------|
-5-5--7-77-7--2-2-5-9-99-9-5-5-7-77-7-2-0------------9-99-9-5-5-7-77-7-2-2-5--|
-5-5--5-55-5--2-2-5-7-77-7-5-5-5-55-5-----2-0-0h2p0--7-77-7-5-5-5-55-5-2-2-5--|
-3-3----------0-0-3--------3-3----------------------3-------3-3--------0-0-3--|


--------------------------|--------------------------------------|--12v-12----|
--------------------------|--------------------------------------|------------|
-9-99-9-----7-77-7--------|--------------------------------------|------------|
-9-99-9-5-5-7-77-7-2-2-22-|--------------------------------------|------------|
-7-77-7-5-5-5-55-5-2-2-22-|--------------------------------------|------------|
--------3-3--------0-0-00-|--------------------------------------|------------|
                            drums and horns play for a little bit

-12-10-7-10-------------------------------------------7-7-7v------------------|
------------10-10--8-7h8-8-8-7h8-7h10p7------------10--------10-8-10-7-7v-----|
----------------------------------------9-7v----7v----------------------------|
---------------------------------------------9v-------------------------------|
------------------------------------------------------------------------------|
------------------------------------------------------------------------------|


------------------------------------------------------------------------------|
-7h9p7-5-7--------------------------------------------------------------------|
-----------9b12121212p9---4---------------------------------------------------|
------------------------5-4-2-------------------------------------------------|
------------------------5-2-2-------------------------------------------------|
------------------------3---0-------------------------------------------------|





Comments


Popular Mighty Mighty Bosstones tabs & chords
1-2-8 Bass Tabs
Awfully Quiet 1 Bass Tabs
Let Me Be Bass Tabs
Let Me Be 1 Bass Tabs
Numbered Days 1 Bass Tabs
So Sad To Say Bass Tabs
Somebody I Suppose Bass Tabs
Simmer Down Chords
That Bug Bit Me Chords
Riot On Broad Street Tabs


Song lyrics



↑ Back to top | Tablatures and chords are parodies/interpretations of the original songs. You may use it for private study, scholarship, research or language learning purposes only
© 2014 AZChords.com Contact us | Privacy policy | DMCA | Add/correct tabs | Request tabs | Top 50 tabs