» » »

We Broke Free Bass tabs (ver.1)

Artists:  A B C D E F G H I J K L M N O P Q R S T U V W X Y Z # 

We Broke Free Bass tabs (ver.1)

Metronomy
Rating:
5/5 (2 votes)

Hard to play? Try these video lessons and learn fast.
                -----------------------------------------------------------------------------
-----------------------------------------------------------------------------


Tuning: Standard


G|--------------------------------------------------------------------------|
D|---------------4---2-4/6--------------------------------------------------|
A|-0---------------------------4----2---------------------------------------|
E|--------0-0-2-------------------------------------------------------------|


And thats it, the same all the way through the song.
Maybe mess about with it towards the end to spice it up a bit.
To give an idea, I think he plays something like this:


G|-----------------------------------6-------4------------------------------|
D|---------------4---2-4/6-------4-6-----2-4--------------------------------|
A|-0---------------------------4-------2--------2-4-2-----------------------|
E|--------0-0-2---------------------------------------2---------------------|


Awesome song, piece of p**s to play.

=============================================================================
            
Hard to play? Try these video lessons and learn fast. | Correct




comments powered by Disqus
↑ Back to top | Tablatures and chords are parodies/interpretations of the original songs. You may use it for private study, scholarship, research or language learning purposes only