» » »

Metallica, Enter Sandman Tabs (ver.13)

Artists:  A B C D E F G H I J K L M N O P Q R S T U V W X Y Z # 

Enter Sandman Tabs (ver.13)

Metallica Tabs
 Rating:
4/5 (4 votes)
Enter Sandman lessons Tabs too difficult? Try these video lessons and learn fast
                This may not be perfect, but it's pretty close.

E|---------------|
B|---------------|
G|---------------| x12
D|------5--------|
A|----7--------7-|
E|-0------6-5----|

E|---|------------------|
B|---|------------------|
G|---|------------------|
D|---|------------------| x4
A|-2-|-2-2-2-2-2-2-2-/7-|
E|-0-|-0-0-0-0-0-0-0----|
       pm-----------|

E|-----------------|
B|-----------------|
G|-----------------|
D|-----------------| x12 (I think)
A|-2-2-7-----2-2-3-|
E|-0-0---6-5-0-0-1-|
   pm-|      pm-|

E|-------------|
B|-------------|         
G|-------------| x3 
D|-------------|
A|-2--2/7------|
E|-0--0-0-6-5b-|

E|----------------|
B|----------------|
G|----------------| x1
D|----------------|
A|-5--x-4-x-4-5-4-|
E|-3--x-2-x-2-3-2-|
      pm---------|

E|-------------|
B|-------------|         
G|-------------| x3 
D|-------------|
A|-2--2/6------|
E|-0--0-0-6-5b-|

E|----------------|
B|----------------|
G|----------------| x1
D|----------------|
A|-5--x-4-x-4-5-4-|
E|-3--x-2-x-2-3-2-|
      pm---------|
                                                                 
E|--------------------------------------------------------|
B|--------------------------------------------------------|
G|--------------------------------------------------------| x1
D|--------------------------------------------------------|
A|-2--2-2-2-2-2-2-2-2-3-2-2-2-2-2-2-2-2-3-2-2-2-2-2-2-2-2-|
E|-0--0-0-0-0-0-0-0-0-1-0-0-0-0-0-0-0-0-1-0-0-0-0-0-0-0-0-|
      pm-------------|  pm-------------|  pm-------------|

E|----------------|
B|----------------|
G|----------------| x1
D|----------------|
A|-5--x-4-x-4-5-4-|
E|-3--x-2-x-2-3-2-|
      pm-----|

E|--------------------------------------------------------|
B|--------------------------------------------------------|
G|--------------------------------------------------------| x1
D|--------------------------------------------------------|
A|-2--2-2-2-2-2-2-2-2-3-2-2-2-2-2-2-2-2-3-2-2-2-2-2-2-2-2-|
E|-0--0-0-0-0-0-0-0-0-1-0-0-0-0-0-0-0-0-1-0-0-0-0-0-0-0-0-|
      pm-------------|  pm-------------|  pm--------------|

E|----------------|
B|----------------|
G|----------------| x1
D|----------------|
A|-5--x-4-x-4-5-4-|
E|-3--x-2-x-2-3-2-|
      pm-----|

E|------------|
B|------------|
G|------2-----| x4
D|----4-------|
A|--------3-2-|
E|-2----------|

E|-------------|
B|-------------|         
G|-------------| x3 
D|-------------|
A|-2--2/7------|
E|-0--0-0-6-5b-|

E|---|
B|---|
G|---| x1
D|---|
A|-5-|
E|-3-|


E|-------------|
B|-------------|         
G|-------------| x1
D|-------------|
A|-2--2/7------|
E|-0--0-0-6-5b-|

E|---------------------|
B|---------------------|
G|---------------------|
D|---------------------|
A|-5---x-5-x-4-x-4-5-4-|
E|-3---x-3-x-2-x-2-3-2-|
       pm-------|

E|-------------|
B|-------------|         
G|-------------| x3 
D|-------------|
A|-2--2/7------|
E|-0--0-0-6-5b-|

E|----------------|
B|----------------|
G|----------------| x1
D|----------------|
A|-5--x-4-x-4-5-4-|
E|-3--x-2-x-2-3-2-|
      pm---------|

E|-------------|
B|-------------|         
G|-------------| x3 
D|-------------|
A|-2--2/6------|
E|-0--0-0-6-5b-|

E|----------------|
B|----------------|
G|----------------| x1
D|----------------|
A|-5--x-4-x-4-5-4-|
E|-3--x-2-x-2-3-2-|
      pm---------|

E|--------------------------------------------------------|
B|--------------------------------------------------------|
G|--------------------------------------------------------| x1
D|--------------------------------------------------------|
A|-2--2-2-2-2-2-2-2-2-3-2-2-2-2-2-2-2-2-3-2-2-2-2-2-2-2-2-|
E|-0--0-0-0-0-0-0-0-0-1-0-0-0-0-0-0-0-0-1-0-0-0-0-0-0-0-0-|
      pm-------------|  pm-------------|  pm-------------|

E|----------------|
B|----------------|
G|----------------| x1
D|----------------|
A|-5--x-4-x-4-5-4-|
E|-3--x-2-x-2-3-2-|
      pm-----|

E|--------------------------------------------------------|
B|--------------------------------------------------------|
G|--------------------------------------------------------| x1
D|--------------------------------------------------------|
A|-2--2-2-2-2-2-2-2-2-3-2-2-2-2-2-2-2-2-3-2-2-2-2-2-2-2-2-|
E|-0--0-0-0-0-0-0-0-0-1-0-0-0-0-0-0-0-0-1-0-0-0-0-0-0-0-0-|
      pm-------------|  pm-------------|  pm-------------|

E|----------------| 
B|----------------|
G|----------------| x1
D|----------------|
A|-5--x-4-x-4-5-4-|
E|-3--x-2-x-2-3-2-|
      pm-----|

E|------------|
B|------------|
G|------2-----| x4
D|----4-------|
A|--------3-2-|
E|-2----------|

E|-------------|
B|-------------|         
G|-------------| x3 
D|-------------|
A|-2--2/7------|
E|-0--0-0-6-5b-|

E|---|
B|---|
G|---| x1
D|---|
A|-5-|
E|-3-|


E|-------------|
B|-------------|         
G|-------------| x1
D|-------------|
A|-2--2/7------|
E|-0--0-0-6-5b-|

E|---------------------|
B|---------------------|
G|---------------------|
D|---------------------|
A|-5---x-5-x-4-x-4-5-4-|
E|-3---x-3-x-2-x-2-3-2-|
       pm-------|

(solo would start here, but i put the guitar in the backround because i was lazy)

E|-------------|
B|-------------|         
G|-------------| x3 
D|-------------|
A|-2--2/7------|
E|-0--0-0-6-5b-|

E|----------------|
B|----------------|
G|----------------| x1
D|----------------|
A|-5--x-4-x-4-5-4-|
E|-3--x-2-x-2-3-2-|
      pm---------|

E|-------------|
B|-------------|         
G|-------------| x3 
D|-------------|
A|-2--2/7------|
E|-0--0-0-6-5b-|

E|----------------|
B|----------------|
G|----------------| x1
D|----------------|
A|-5--x-4-x-4-5-4-|
E|-3--x-2-x-2-3-2-|
      pm---------|

E|------------|
B|------------|
G|------2-----| x4
D|----4-------|
A|--------3-2-|
E|-2----------|


E|-------------|
B|-------------|         
G|-------------| x3 
D|-------------|
A|-2--2/7------|
E|-0--0-0-6-5b-|

E|---|
B|---|
G|---| x1
D|---|
A|-5-|
E|-3-|


E|-------------|
B|-------------|         
G|-------------| x1
D|-------------|
A|-2--2/7------|
E|-0--0-0-6-5b-|

E|---|
B|---|
G|---| x1
D|---|
A|-5-|
E|-3-|

(Pause)

E|---------------|
B|---------------|
G|---------------| x16
D|------5--------|
A|----7--------7-|
E|-0------6-5----|

E|-------------|
B|-------------|         
G|-------------| x3 
D|-------------|
A|-2--2/7------|
E|-0--0-0-6-5b-|

E|---|
B|---|
G|---| x1
D|---|
A|-5-|
E|-3-|


E|-------------|
B|-------------|         
G|-------------| x1
D|-------------|
A|-2--2/7------|
E|-0--0-0-6-5b-|

E|---------------------|
B|---------------------|
G|---------------------|
D|---------------------|
A|-5---x-5-x-4-x-4-5-4-|
E|-3---x-3-x-2-x-2-3-2-|
       pm-------|

E|-------------|
B|-------------|         
G|-------------| x3 
D|-------------|
A|-2--2/7------|
E|-0--0-0-6-5b-|

E|---|
B|---|
G|---| x1
D|---|
A|-5-|
E|-3-|


E|-------------|
B|-------------|         
G|-------------| x1
D|-------------|
A|-2--2/7------|
E|-0--0-0-6-5b-|

E|---------------------|
B|---------------------|
G|---------------------|
D|---------------------|
A|-5---x-5-x-4-x-4-5-4-|
E|-3---x-3-x-2-x-2-3-2-|
       pm-------|

E|-------------|
B|-------------|         
G|-------------| x7 
D|-------------|
A|-2--2/7------|
E|-0--0-0-6-5b-|

E|----------------|
B|----------------|
G|----------------| x1
D|----------------|
A|-5--x-4-x-4-5-4-|
E|-3--x-2-x-2-3-2-|

E|-----------------|
B|-----------------|
G|-----------------|
D|-----------------| x25 (fading)
A|-2-2-7-----2-2-3-|
E|-0-0---6-5-0-0-1-|
   pm-|      pm-|
            
Submit corrections

comments powered by Disqus
↑ Back to top | Metallica Tabs for Enter Sandman. Lyrics for acoustic guitar and electric guitar. Tablatures and chords are parodies/interpretations of the original songs. You may use it for private study, scholarship, research or language learning purposes only