» » »

Metallica, Enter Sandman Bass tabs (ver.2)

Artists:  A B C D E F G H I J K L M N O P Q R S T U V W X Y Z # 

Enter Sandman Bass tabs (ver.2)

Metallica Tabs
 Rating:
4/5 (4 votes)
Enter Sandman lessons Tabs too difficult? Try these video lessons and learn fast
1
                tempo=124                                                      x5

|---------------------------------------------------------------|
|---------------------------------------------------------------|
|---------------------------------------------------------------|
|-0-0-0-0-0-0-0-0-0-0-0-0-0-0-0-0-0-0-0-0-0-0-0-0-0-0-0-0-0-0-0-|

|--------------------------------------------------------------------------|
|--------------------------------------------------------------------------|
|--------------------------------------------------------------------------|
|-0-0-6-5-5-5-0--0-0-6-5-5-5-0--0-0-6-5-5-5-0--0-0-6-5-5-5-3-0-2-0-2-3-2-0-|

|--------------------------------------------------------------------------|
|--------------------------------------------------------------------------|
|--------------------------------------------------------------------------|
|-0-0-6-5-5-5-0--0-0-6-5-5-5-0--0-0-6-5-5-5-0--0-0-6-5-5-5-3-0-2-0-2-3-2-0-|

Verse

|--------------------------------------------------------------------------|
|--------------------------------------------------------------------------|
|--------------------------------------------------------------------------|
|-0-0-0-0-0-0-0-1-0-0-0-0-0-0-0-1-0-0-0-0-0-0-0-3---0-2-0-3-2-------------|
  
                  Bridge
|----------------|-------------------------------------------------------|
|----------------|-------------------------------------------------------|
|----------------|-------2------------2-----------2------------2-2-2-----|
|-0-2-0-2-3-2-2--|-----------2------------2------------2-2-2-2-------0---|

Chorus
|------------------------------------------------------------------------|
|-----------------------------------------------------------2-2--2-0-----|
|-------3-2-2-2----------3-2-2-2-----------3-2-2-2--------2----------2-0-|
|-2-2-2---------2----2-2---------2-----2-2---------0---------------------|

|-----------------------------------------------------|
|-----------------------------------------------------|
|----------3--2--2--2---------------------------------|
|-2--2--2--------------0----0--2--0--3--0--3--2--3----|

                  Guitar Solo                                             x2
|--------------------------------------------------------------------------|
|--------------------------------------------------------------------------|
|--------------------------------------------------------------------------|
|---0-0-0-0-0-0-0---0-0-6-5-5-5---0-0-6-5-5-5---0-6-5-5-5-3--0-2-0-2-3-2-0-|


|--------------------------------------------------------------------------|
|--------------------------------------------------------------------------|
|-------2----------2-----------2-------------2-2-2----------3-2-2-2--------|
|---2-------2----------2-------------2-2-2-2-------0--2-2-2---------2------|

|--------------------------------------------------------------------------|
|--------------------------------------------------------5--2--0-----------|
|--------3--2--2--2--2--------------3--2--2--2-------------------2--1--0---|
|--2--2-----------------2-----2--2--------------0-------------------------3|

|----------------------------------------------------|
|----------------------------------------------------|
|--------------2--2--2-------------------------------|
|--2--2--2--2-----------0-----0--2--0--3--0--5--3--0-|


|---------------------------------------------------------------|
|---------------------------------------------------------------|
|---------------------------------------------------------------|
|-0-0-0-0-0-0-0-0-0-0-0-0-0-0-0-0-0-0-0-0-0-0-0-0-0-0-0-0-0-0-0-|

|---------------------------------------------------------------|
|---------------------------------------------------------------|
|---------------------------------------------------------------|
|-0-0-0-0-0-0-0-0-0-0-0-0-0-0-0-0-0-0-0-0-0-0-0-0-0-0-0-0-0-0-0-|


|-----------------------------------------------------------------|
|-----------------------------------------------------------------|
|-----------------------------------------------------------------|
|-2-2-2-2-2-2-2-2-2-2-2-2-2-2-2-2-2-2-2-2-2-2-2-2-2-2-2-2-2-2-2-2-|


|-------------------------------------------------------------------|
|-------------------------------------------------------------------|
|---------------------------------------------------------2-2-2-----|
|-2-2-2-2-2-2-2-2-2-2-2-2-2-2-2-2-2-2-2-2-2-2-2-2-2-2-2-2-------0---|

|--------------------------------------------------------------------|
|--------------------------------------------------------------------|
|-------3-2-2-2----------3-2-2-2----------3-2-2-2----------3-2-2-2---|
|-2-2-2---------2----2-2---------2----2-2---------2----2-2---------2-|

|--------------------------------------------------------------------|
|--------------------------------------------------------------------|
|-------3-2-2-2---------------------------3-2-2-2--------------------|
|-2-2-2---------0---0-0-0-0-0-0-0--2-2-2----------0----0-0-0-0-0-0-0-|

|--------------------------------------------------------------------|
|-----------------------0-1-2-0--------------------------------------|
|-------3-2-2-2------2----------2-0--------3-2-2-2-------------------|
|-2-2-2---------0--------------------2-2-2---------0---0-2-0-3-0-3-2-|
--
|-----------------------------------------------------------------------|
|-----------------------------------------------------------------------|
|-----------------------------------------------------------------------|
|----3---------------0--------------------------------------------0-----|

|-----------------------------------------------------------------|
|-----------------------------------------------------------------|
|-----------------------------------------------------------------|
|-0-0-6-5-5-5-0---0-0-6-5-5-5-0---0-0-6-5-5-5-0---0-0-6-5-5-5-0---|

                                                     repeat to fade
|-----------------------------------------------------------------|
|-----------------------------------------------------------------|
|-----------------------------------------------------------------|
|-0-0-6-5-5-5-3---0-2-0-2-3-2-0---0-0-0-0-0-0-0--0-0-0-0-0-0-0-0--|
            
Submit corrections

comments powered by Disqus
↑ Back to top | Metallica Bass for Enter Sandman. Lyrics for acoustic guitar and electric guitar. 1 Tablatures and chords are parodies/interpretations of the original songs. You may use it for private study, scholarship, research or language learning purposes only