» » »

Enter Sandman Tabs (ver.3)

Artists:  A B C D E F G H I J K L M N O P Q R S T U V W X Y Z # 

Enter Sandman Tabs (ver.3)

Metallica
Rating:
0/5 (0 votes)

Hard to play? Try these video lessons and learn fast.
                this is the complete and the best tab for this song ever made.so have fun and enjoy.
tunning:eb,ab,db,gb,bb,eb
intro                                                                  kirkwah x5
--------------5--------------------------------------------------------2------------
----------7---------------------7---------------------------------------------------
------0----------6---5--------------0-----------------------------------------------
inro contenued into the heavy part
-------------------------------------------
-------------------------------------------
-------------------------------------------
--------5----------------------------------
------7---------------7---2----------------
--0---------6---5---------0----------------
into the heavy part,palm mute the 0's
------------/7---------------------------------/7--------------------------/7------
0-0-0-0-0-0----0-0-0-0-0-0-0-0---0-0-0-0-0-0-0-----0-0-0-0-0-0-0--0-0-0-0-0---0-0-0

----------/7----/7--------------3-----/7--------3-------/7------3-----/7------3----
-0-0-0-0----0-0----0--0--0-0--0-1--0-0---0-0-0-01-0-0-0----0-0-01--0-0-0-0-0--1----
vartions in hard part
---------/7-----------------3-----/7-----------------2----/7----------2----/7-------
--0----0-----6-----5--0---0-1--------6------5--0-0---0-------6---5--0-0-------6---5-

-------------5--------4--------4-------5-------4--------2--------------------------
--------0----3--0-----2---0----2----0--3--0----2--------0--------------------------
verses
----------------------3--------------------3--------------------5------------------
-0---0--0---0---0--0--1-0--0--0--0-0-0-0-0-1--0-0-0-0-0-0-0-0-0-3-------------------

-----------------------------
-----------------------------
-----------------------------
-----------------------------
------4---4---5----4---2-----
--0---2-0-2-0-3-0--2---0-----

bridgex3
---------------------------------
---------------------------------
---------2-----------------------
--------4------------4-----------
-----------3----2----------------
-----2-------------------2-------

chrous
-------------4------------------------4---------------4--------------------------4---
-4----4----3-2-------4-----4-----3----2----4--4---3---2------2---4---4-3---------2-2-
-2-------------------2---------------------2-----------------0---2-----------------0-

-----------------------
-----------------------
-----------------------
-----------------------
--5---4---4/5---4---2--
--3-0-2-0-2/3---2---0--

guitar solo w/wah
--15--15--15-12------12-----12--12----15b----15b-------------------------------------
----------------14b----14b---------14------------12/14-14-14-14-14\12-12-12/14-14-14-

-----------------------------12-12-12---12-12-12---12-12-12---12-12-12--12-12-12-15--
--------------------------15b--------15b--------15b--------15b-----------------------
-14-12-------------------------------------------------------------------------------
---14--14-12-------------------------------------------------------------------------
----------14--14-12/10---------------------------------------------------------------
---------------------12--------------------------------------------------------------

-12-15-12-12-15-12-14-14-17-14-17-14-17-14-19-15-19-15-21-17-21-17-21-17-22b\--------
-----------------------------15----15----15----17----17----17----17----17------------

-9b-9b-9--9b-9b-------------10--------10-8-7-7/8\7----7------------------------------
-9b-9b-9--9b-9b----7---9---7----------------9------9----9-7--------7-----------------
------------------------7-9----------------------------------9-----------------------

--9-7-7-9-7----------16-------------16-----------16------------16-----------16-------
---------9--8--7---------------------------------------------------------------------
-----------------10/7----------------------------------------------------------------

-------------------------------------------------21-17-21-17-21-17-21-17-21-17-21-17-
----17----17--------17-------------------------------17----17----17----17----17----17
-16b--16b---16b-------16b------------------------------------------------------------

-22b-22-22-22b-22-22-22b-------------------------------------------------------------
------------------------10-8-7-------------------------------------------------------
------------------------------9--9--7------------------------------------------------
-------------------------------------9---9--7--5--7b--5------------------------------
-------------------------------------------------------7--------------5h7------------
                                  trem bar on the 2's 1 whole step
--4vvvvvvvvvvvvvvvvvvvvvvv---0--2-2-2-2-2-2-2-2-2-2-2-2-2-2-2-2-2-2-2-2-2-2-2-2-2-2-2

Fill1                   chrous fills
------------------     --------------------  ---------------------
-12b--12b--12b----     --------------------  ---------------------
-12b--12b--12b----     -----------2-----4--  -----------------2---
---------------14\     ----5----2-----5---5  ----5---2--5---2---2-
------------------     --------------------  ---------------------
------------------     --------------------  ---------------------

verse fills
--------------------------------------------12\--
-----12b---------------------------14b------12\--
-----12b-----12--14--14p12----12---14b-----------
----------14---------------14--------------------
-------------------------------------------------
-------------------------------------------------
 everbody if you cant understand the solo part look on another tab make sure the beginging of mine is the same begeing for theres if not that not the right solo.
            
Hard to play? Try these video lessons and learn fast. | Correct




comments powered by Disqus
↑ Back to top | Tablatures and chords are parodies/interpretations of the original songs. You may use it for private study, scholarship, research or language learning purposes only