» » »

Metallica, Enter Sandman Bass tabs (ver.1)

Artists:  A B C D E F G H I J K L M N O P Q R S T U V W X Y Z # 

Enter Sandman Bass tabs (ver.1)

Metallica Tabs
 Rating:
4/5 (4 votes)
Enter Sandman lessons Tabs too difficult? Try these video lessons and learn fast
1
                Band: Metallica
Bassist: Jason Newsted
Tuning: Standard

Note:
I made this tab based on the bass master track of the song, so you can be
completely sure that this tab is 100% correct. 

You can hear the bass master track here:

Intro

G|----------------------------------------------------------------|
D|----------------------------------------------------------------|
A|----------------------------------------------------------------|
E|-0--0-0-0-0-0-0-0-0-0-0-0-0-0-0-0-0-0-0-0-0-0-0-0-0-0-0-0-0-0-1-|

G|-----------------|
D|-----------------| x7
A|-----------------|
E|-0-0-0-0-0-0-0-1-|

G|------------|
D|------------|
A|------------|
E|-0-0-0-5--5-|

G|------------------|
D|------------------|
A|------------------|
E|-0--0-0-0-0-0-0-1-|

G|-----------------|
D|-----------------| x5
A|-----------------|
E|-0-0-0-0-0-0-0-1-|

G|-------------------------------|
D|-------------------------------|
A|---------7-7-7-7-7-7-7-7-7-7-7-|
E|-0-0-0-0-0-0-0-0-0-0-0-0-0-0-0-|

G|----------------|-----------------|-----------------|---------------|
D|----------------|-----------------|-----------------|---------------| x2
A|----------------|-----------------|-----------------|---------------|
E|-0--0-0-6-5-5-5-|-0-0-0-0-6-5-5-5-|-0-0-0-0-6-5-5-5-|-3-0-2-0-2-3-2-|

Verse 1

G|------------------|-----------------|-----------------------------|
D|------------------|-----------------|-----------------------------| x2
A|------------------|-----------------|-----------------------------|
E|-0--0-0-0-0-0-0-1-|-0-0-0-0-0-0-0-1-|-0-0-0-0-0-0-0-3-0-2-0-2-3-2-|

Pre-chorus

G|--------4-|--------4-|--------4-|-----------------|
D|------4---|------4---|------4---|-----------------|
A|----2-----|----2-----|----2-----|-----------------|
E|-2--------|-2--------|-2--------|-2-2-2-2-2-0-0-1-|

Chorus

G|---------------|-----------------|-----------------|-------------------|
D|---------------|-----------------|-----------------|-------------------|
A|-------3-2-2-2-|---------3-2-2-2-|---------3-2-2-2-|-------5---7-5-----|
E|-2-2-2---------|-2-2-2-2---------|-2-2-2-2---------|-0-5/7---7-----7-5-|
 |
G|-------------|---------------------|
D|-------------|---------------------|
A|-----3-2-2-2-|---------------------|
E|-2-2---------|-0-0-0-2-0-3-0-5-0-0-|

G|--------------|-----------------|-----------------|---------------|
D|--------------|-----------------|-----------------|---------------|
A|--------------|-----------------|-----------------|---------------|
E|-0--0-6-5-5-5-|-0-0-0-0-6-5-5-5-|-0-0-0-0-6-5-5-5-|-3-0-2-0-2-3-2-|

G|----------------|-----------------|-----------------|---------------|
D|----------------|-----------------|-----------------|---------------|
A|----------------|-----------------|-----------------|---------------|
E|-0--0-0-6-5-5-5-|-0-0-0-0-6-5-5-5-|-0-0-0-0-6-5-5-5-|-3-0-2-0-2-3-2-|

Verse 2

G|------------------|-----------------|-----------------------------|
D|------------------|-----------------|-----------------------------|
A|------------------|-----------------|-----------------------------|
E|-0--0-0-0-0-0-0-1-|-0-0-0-0-0-0-0-1-|-0-0-0-0-0-0-0-3-0-2-0-2-3-2-|

G|------------------|-----------------|-----------------------------|
D|------------------|-----------------|-----------------------------|
A|------------------|-----------------|-----------------------------|
E|-0--0-0-0-0-0-0-1-|-0-0-0-0-0-3-2-1-|-0-0-0-0-0-0-0-3-0-2-0-2-3-2-|

Pre-chorus

G|--------4-|--------4-|--------4-|-----------------|
D|------4---|------4---|------4---|-----------------|
A|----2-----|----2-----|----2-----|-----------------|
E|-2--------|-2--------|-2--------|-2-2-2-2-2-0-0-1-|

Chorus

G|---------------|-----------------|-----------------|-----------------|
D|---------------|-----------------|-----------------|-----------------|
A|-------3-2-2-2-|---------3-2-2-2-|---------3-2-2-2-|-----7-5---------|
E|-2-2-2---------|-2-2-2-2---------|-2-2-2-2---------|-0-0-----8-7-5-3-|
 |
G|---------------|---------------------|
D|---------------|---------------------|
A|-------3-2-2-2-|---------------------|
E|-2-2-2---------|-0-0-0-2-0-3-0-5-0-0-|

Guitar solo

G|-------------------|-----------------|-----------------|---------------|
D|-------------------|-----------------|-----------------|---------------|
A|-------------------|-----------------|-----------------|---------------|
E|-0---0-0-0-6-5-5-5-|-0-0-0-0-6-5-5-5-|-0-0-0-0-6-5-5-5-|-3-0-2-0-2-3-2-|

G|----------------|-----------------|-----------------|---------------|
D|----------------|-----------------|-----------------|---------------|
A|----------------|-----------------|-----------------|---------------|
E|-0--0-0-6-5-5-5-|-0-0-0-0-6-5-5-5-|-0-0-0-0-6-5-5-5-|-3-0-2-0-2-3-2-|

G|--------4-|--------4-|--------4-|-----------------|
D|------4---|------4---|------4---|-----------------|
A|----2-----|----2-----|----2-----|-----------------|
E|-2--------|-2--------|-2--------|-2-2-2-2-2-0-0-1-|

G|---------------|-----------------|-----------------|---------------|
D|---------------|-----------------|-----------------|---------------|
A|-------3-2-2-2-|---------3-2-2-2-|---------3-2-2-2-|---7-5---------|
E|-2-2-2---------|-2-2-2-2---------|-2-2-2-2---------|-0-----7-6-5-2-|
 |
G|---------------|--------------------|
D|---------------|--------------------|
A|-------3-2-2-2-|--------------------|
E|-2-2-2---------|-0--0-2-0-3-0-5-0-0-|

G|-----------------|
D|-----------------| x12
A|-----------------|
E|-0-0-0-0-0-0-0-1-|

Verse 3

G|-----------------|
D|-----------------| x4
A|-----------------|
E|-2-2-2-2-2-2-2-3-|

G|-----------------|
D|-----------------|
A|-----------------|
E|-2-2-2-2-2-2-2-2-|

G|-----------------|
D|-----------------|
A|-----------------|
E|-2-2-2-2-2-2-2-3-|

G|---------------------------------|
D|---------------------------------|
A|---------------------------------|
E|-2-2-2-2-2-2-2-2-2-2-2-2-2-0-1-2-|

Chorus

G|---------------|-----------------|-----------------|-------------------|
D|---------------|-----------------|-----------------|-------------------|
A|-------3-2-2-2-|---------3-2-2-2-|---------3-2-2-2-|-----7---5---------|
E|-2-2-2---------|-2-2-2-2---------|-2-2-2-2---------|-0-0---0---0-7-0-5-|
 |
G|---------------|---------------------|
D|---------------|---------------------|
A|-------3-2-2-2-|---------------------|
E|-2-2-2---------|-0-0-0-0-0-0-0-0-0-0-|

G|---------------|-----------------|-----------------|-------------------|
D|---------------|-----------------|-----------------|-------------------|
A|-------3-2-2-2-|---------3-2-2-2-|---------3-2-2-2-|---------5--7-5----|
E|-2-2-2---------|-2-2-2-2---------|-2-2-2-2---------|-0-0-5-7--------7\-|
 |
G|---------------|-------------------------|
D|---------------|-------------------------|
A|-------3-2-2-2-|-------------------------|
E|-2-2-2---------|-0-0-0-2-0-3-0-5-0-0---0-|

G|----------------|-----------------|----------------|-----------------|
D|----------------|-----------------|----------------|-----------------|
A|----------------|-----------------|----------------|-----------------|
E|-0--0-0-6-5-5-5-|-0-0-0-0-6-5-5-5-|-0--0-0-6-5-5-5-|-0-0-0-0-6-5-5-5-|
 |
G|-----------------|---------------|
D|-----------------|---------------|
A|-----------------|---------------|
E|-0-0-0-0-6-5-5-5-|-3-0-2-0-2-3-2-|

Outro

G|-----------------|
D|-----------------| x8
A|-----------------|
E|-0-0-0-0-0-0-0-1-|

G|-----------------------------------------------------------------|
D|-----------------------------------------------------------------| x3
A|-----------------------------------------------------------------|
E|-0-0-0-0-0-0-0-0-0-0-0-0-0-0-0-0-0-0-0-0-0-0-0-0-0-0-0-0-0-0-0-0-|
 |
G|-------------------------------------------------------|
D|-------------------------------------------------------|
A|-------------------------------------------------------|
E|-0-0-0-0-0-0-0-0-0-0-0-0-0-0-0-0-0-0-0-0-0-0-0-0-0-0-0-|

Legend
------
| / = slide up
| \ = slide down
            
Submit corrections

comments powered by Disqus
↑ Back to top | Metallica Bass for Enter Sandman. Lyrics for acoustic guitar and electric guitar. 1 Tablatures and chords are parodies/interpretations of the original songs. You may use it for private study, scholarship, research or language learning purposes only