» » »

Metallica, Enter Sandman Bass tabs (ver.5)

Artists:  A B C D E F G H I J K L M N O P Q R S T U V W X Y Z # 

Enter Sandman Bass tabs (ver.5)

Metallica Tabs
 Rating:
4/5 (4 votes)
Enter Sandman lessons Tabs too difficult? Try these video lessons and learn fast
                ENTER SANDMAN


*Wait for guitar to repeat the beginning riff 8 times, then...*

|---------------------|
|o-------------------o|
|o----------------7--o|  (x8)
|---0-0-0-0-0-0-0-----|

|-----------------------|
|o---------------------o|
|o------7--------------o|  (x4)
|---0-0---6-0-0-0-0-1---|

|----------------------|
|o--------------------o|
|o-----7--------------o| (x8)
|--0-0----6-5-0-0-1----|

|----------------------------------|
|----------------------------------|
|------7---------------------------|
|--0-0---6-5-0-0-0-----------------|

Pre-Verse Riff:
            (x3)
|----------------||-------------------|
|o--------------o||------------------o|
|o-----7--------o||------------------o|  (x2)
|--0-----6-5-0---||--3-0-2-0-2-3-2-0--|

Verse Riff:
 Say you prayers little one...
|-------------------------------------------------------------------|
|o-----------------------------------------------------------------o|
|o-----------------------------------------------------------------o|  (x2)
|--0-0-0-0-0-0-0-1-0-0-0-0-0-0-0-1-0-0-0-0-0-0-0-3-0-2-0-2-3-2-0----|

Pre-Chorus Riff:
          (x3)
|------2-------||--0---0---2----|
|o----4-------o||----2---2---2--|
|o--------3-2-o||---------------|
|--2-----------||---------------|

Chorus:
 Exit: Light, Enter: Night...

|--------------------------------------------------|
|--------------------------------------------------|
|-----3-2-------3-2-------3-2----------------------|
|--2---------2---------2-----------0-2-0-2-0-3-2---|

                                We're off to never-never land..
|-------------------------------|---------------------------------|
|-------------------------------|---------------------------------|
|-----3-2-----------------------|---------------------------------|
|--2----------0-2-0-2-0-2-2-3---|---------------------------------|


(Repeat Pre-Verse Riff)
(Repeat Verse Riff)
(Repeat Pre-Chorus Riff)


Chorus(a little different):

|--------------------------------------------------|
|--------------------------------------------------|
|-----3-2-------3-2-------3-2----------------------|
|--2---------2---------2-----------0-2-0-2-0-3-2---|

                                We're off to never-never land..
|-------------------------------|---------------------------------|-------|
|-------------------------------|---------------------------------|-------|
|-----3-2-----------------------|---------------------------------|-------|
|--2----------0-2-0-2-0-2-2-3---|---------------------------------|-0~----|


During Guitar solo:

            (x3)
|---------------||-------------------|
|o-------------o||------------------o|
|o----7--------o||------------------o|  (x2)
|--0-----6-5----||--3-0-2-0-2-3-2-0--|
          
           (x3)
|------2-------||--0---0---2----|
|o----4-------o||----2---2---2--|
|o--------3-2-o||---------------|
|--2-----------||---------------|


|-------------------------------------------------|
|-------------------------------------------------|
|-----3-2-------3-2------3-2----------------------|
|--2---------2---------2----------0-2-0-2-0-3-2---|

                            
|------------------------------------|
|------------------------------------|
|-----3-2----------------------------|
|--2----------0-2-0-2-0-2-2-3----0x--|


Down Part:

|---------------------|
|o-------------------o|
|o----------------7--o| (x4)
|--0-0-0-0-0-0-0------|

 Now I lay me...

|---------------------|
|o-------------------o|
|o----------------7--o| (x8)
|--0-0-0-0-0-0-0------|


Hush little baby...
           (x8)
|------2-------||
|o----4-------o||
|o--------3-2-o||
|--2-----------||


Chorus:
 Exit: Light, Enter: Night
|-------------------------------------------------|
|-------------------------------------------------|
|-----3-2-------3-2------3-2----------------------|
|--2---------2---------2----------0-2-0-2-0-3-2---|

 Grain of sand...
|-------------------------------|
|-------------------------------|
|-----3-2------>------->--->----|
|--2-----------0~~-----0-0-0-0--|

|-----------------------------------------------|
|-----------------------------------------------|
|-----3-2-------3-2-------3-2-------------------|
|--2---------2---------2--------0-2-0-2-0-3-2---|

                             We're off to never-never land..
|----------------------------|---------------------------------|
|----------------------------|---------------------------------|
|---4-3-2--------------------|---------------------------------|
|--2-------0-2-0-2-0-2-2-3---|---------------------------------|

|------------------|
|------------------|
|-->---------------|
|--0~~~~~~~~~~~~~--|

Outro:

            (x5)
|----------------||-------------------|
|o--------------o||-------------------|
|o-----7--------o||-------------------|  
|--0-----6-5-0---||--3-0-2-0-2-3-2-0--|


|----------------------|
|o--------------------o|
|o-----7--------------o| (x4)
|--0-0----6-5-0-0-1----|

|-----------------------|
|o---------------------o|
|o------7--------------o|  (x4)
|---0-0---6-0-0-0-0-1---|

|-------------------------------|
|-------------------------------|
|-------------------------------|  Repeat while fading out
|--0-0-0-0-0-0-0-0-0-0-0-0-0-0--|
            
Submit corrections

comments powered by Disqus
↑ Back to top | Metallica Bass for Enter Sandman. Lyrics for acoustic guitar and electric guitar. Tablatures and chords are parodies/interpretations of the original songs. You may use it for private study, scholarship, research or language learning purposes only