>
 >
Dyers Eve 3

Dyers Eve 3 Bass Tabs

Metallica - Dyers Eve 3 chords, tabs, tablatures, lyrics

Guitar lessons | Add/correct | Request | Top 50 tabs Artists:  A B C D E F G H I J K L M N O P Q R S T U V W X Y Z 0-9

Dyers Eve 3 Bass Tabs – Metallica

CD, Sheet music, Poster

Do you like Dyers Eve 3? Share with your friends now
Bass TabsBass Tabs v2Bass Tabs v3Bass Tabs v4Drum TabsTabsTabs v2Tabs v3Tabs v4
Metallica - Dyers Eve
Album     - ...And Justice For All (1988)
-----------------------------------------
Standard Tuning (E,A,D,G)
-----------------------------------------

Intro -

G|-----------------|-----------------|-----------------|-----------------|
D|-----------------|-----------------|-----------------|-----------------|
A|-2-3-2-3---------|-----------------|-----------------|-----------------|
E|---------0-1-0-1-|-0-------1-------|-0-------3---0---|-----1-------0---|

G|-----------------|-----------------|-----------------|-----------------|
D|-----------------|-----------------|-----------------|-----------------|
A|-----------------|-----------------|-----------------|-----------------|
E|-----0-1-0-------|-1-------0-------|-3---0-------1---|-----0---0-1-0-1-|

G|-----------------|-----------------|-----------------|-----------------|
D|-----------------|-----------------|-----------------|-----------------|
A|-----------------|-----------------|-----------------|-----------------|
E|-0---X-x-1---X-x-|-0---X-0-3---0---|-X-x-1---X-x-0---|-X-x-0-1-0---X-x-|

G|-----------------|-----------------|-----------------|-----------------|
D|-----------------|-----------------|-----------------|-----------------|
A|-----------------|-----------------|-----------------|-----------------|
E|-1---X-x-0---X-x-|-3---0---X-x-1---|-X-x-0---0-1-0-1-|-0-0-0-0-1---1-1-|

G|-----------------|-----------------|-----------------|-----------------|
D|-----------------|-----------------|-----------------|-----------------|
A|-----------------|-----------------|-----------------|-----------------|
E|-0---0-0-3---0---|-0-0-1---1-1-0---|-0-0-0-1-0---X-0-|-1---1-1-0---0-0-|

G|-----------------|-----------------|-----------------|-----------------|
D|-----------------|-----------------|-----------------|-----------------|
A|-----------------|-----------------|-----------------|-----------------|
E|-3---0---0-0-1---|-1-1-0---0-1-0-1-|-0---------------|-----------------|

G|-----------------|-----------------|-----------------|-----------------|
D|-----------------|-----------------|-----------------|-----------------|
A|-----------------|-----------------|-----------------|-----------------|
E|-----------------|-----------------|-----------------|-----------------|


Pre Verse 1 -

G|-----------------|-----------------|-----------------|-----------------|
D|-----------------|-----------------|-----------------|-----------------|
A|-222222223-2-0-2-|-222222223-2-0-2-|-222222223-2-0-2-|-2222222-3-2-----|
E|-----------------|-----------------|-----------------|-------------3-2-|

G|-----------------|-----------------|-----------------|-----------------|
D|-----------------|-----------------|-----------------|-----------------|
A|-2-2222223-2-0-2-|-222222223-2---0-|-2-2222223-2-0-2-|-2222222-3-2-----|
E|-----------------|-----------------|-----------------|-------------X-2-|

G|-----------------|-----------------|-----------------|-----------------|
D|-----------------|-----------------|-----------------|-----------------|
A|-----------------|-----------------|-2-22222-0-2-0-2-|-33333-3-2-2-----|
E|-0-------0-------|-0-------0-------|-----------------|-------------3-2-|

G|-----------------|-----------------|-----------------|-----------------|
D|-----------------|-----------------|-----------------|-----------------|
A|---------7-------|-5-------3-------|-2-22222-0-2-0-2-|-3-3-3-3-2-2-----|
E|-0-00320---0-320-|---0-320---0-320-|-----------------|-------------3-2-|

G|-----------------|-----------------|-----------------|-----------------|
D|-----------------|-----------------|-----------------|-------------5-4-|
A|-----------------|-5-------3-------|-2-22222-0-2-0-2-|-3-333-3-3-2-----|
E|-0-------0-------|-----------------|-----------------|-----------------|

G|-----------------|-----------------|-----------------|-----------------|
D|-----------------|-----------------|-----------------|-----------------|
A|-222222223-2-0-2-|-222222223-2-0-2-|-222222223-2-0-2-|-2222222-3-2-----|
E|-----------------|-----------------|-----------------|-------------3-2-|

G|-----------------|-----------------|-----------------|-----------------|
D|-----------------|-----------------|-----------------|-----------------|
A|-2-2222223-2-0-2-|-222222223-2---0-|-2-2222223-2-0-2-|-2222222-3-2-----|
E|-----------------|-----------------|-----------------|-------------3-2-|

G|-----------------|
D|-----------------|
A|---------7-------|
E|-0---320-----0---|


Verse 1 -

G|-----------------|-----------------|-----------------|-----------------|
D|-----------------|-----------------|-----------------|-----------------|
A|-----------------|-----------------|-----------------|-----------2-3---|
E|-2-0-20002-0-2-00|-3-003-003-0-3-0-|-5-00500050003-2-|-0-000000------0-|

G|-----------------|-----------------|-----------------|-----------------|
D|-----------------|-----------------|-----------------|-----------------|
A|-----------------|-----------------|-7---7---7-------|-----------------|
E|-2-002-002-0-2-0-|-3-0-330-3-0-330-|---00--0---0-320-|-5-0055005-2-3-0-|

G|-----------------|-----------------|-----------------|-----------------|
D|-----------------|-----------------|-----------------|-----------------|
A|-----------------|-5---5---5---5---|-----------------|-----------------|
E|-2-002-0022002-0-|---0--000-000-000|-5-0055005-005500|-3---------------|

G|-----------------|-----------------|-----------------|-----------------|
D|-----------------|-----------------|-----------------|-----------------|
A|-2-2-----3-3-----|-22--2-2-3-2-0-2-|-2-2-2-2-3-2-----|-----------------|
E|-----------------|-----------------|-------------3-2-|-200-2-0-200-2-0-|

G|-----------------|-----------------|-----------------|-----------------|
D|-----------------|-----------------|-----------------|-----------------|
A|-----------------|-----------------|-----------2-3---|-----------------|
E|-33003-0-3-0-3-00|-5-0-55005-0-5-00|-00000-0-0-----0-|-2-002-0-220-2-0-|

G|-----------------|-----------------|-----------------|-----------------|
D|-----------------|-----------------|-----------------|-----------------|
A|-----------------|-----------------|-----------------|-----------------|
E|-3-0-330-3-0-3-0-|-0---0-0-0-0-0-0-|-555555555-2-3-00|-2-0-2-0-22002-0-|

G|-----------------|-----------------|-----------------|-----------------|
D|-----------------|-----------------|-----------------|-----------------|
A|-5---5---55--5---|-----------------|-----------------|-----------2h3---|
E|---00--00--00-00-|-5-0-5-0-55005-0-|-3---------------|-----------------|


Bridge -

G|-----------------|-----------------|-----------------|-----------------|
D|-----------------|-----------------|-----------------|-----------------|
A|-222222223-2-0-2-|-222222223-2-0-2-|-222222223-2-0-2-|-222222223-2-----|
E|-----------------|-----------------|-----------------|-------------3-2-|

G|-----------------|-----------------|-----------------|-----------------|
D|-----------------|-----------------|-----------------|-----------------|
A|-----------------|-2222222-0-2-0-2-|-3-33333-3-2-----|---------7-------|
E|-0-------0-------|-----------------|-------------3-2-|-0---320-----0---|


Chorus 1 -

G|-----------------|-----------------|-----------------|-----------------|
D|-----------------|-----------------|-----------------|-----------------|
A|-----------------|---------7---7---|-5-5-5---5-5-5---|---------7-------|
E|-0---0-0-0---0-0-|-0---320---------|-----------------|-0---3-0-----0---|

                                                        3/4
G|-----------------|-----------------|-----------------|-------------|
D|-----------------|-----------------|-----------------|-------------|
A|-----------------|---------7---7---|-0-2-3---3---222-|--22--22--22-|
E|-0---0-0-0---0-0-|-0---320---------|-----------------|-------------|


Pre Verse 2 -

  4/4
G|-----------------|-----------------|-----------------|-----------------|
D|-----------------|-----------------|-----------------|-----------------|
A|-2-2222223-2-0-2-|-222222223-2-0-2-|-222222223-2-0-2-|-2222222-3-2-----|
E|-----------------|-----------------|-----------------|-------------3-2-|

G|-----------------|-----------------|-----------------|-----------------|
D|-----------------|-----------------|-----------------|-----------------|
A|-222222223-2-0-2-|-222222223-2---0-|-2-2222223-2-0-2-|-2222222-3-2-----|
E|-----------------|-----------------|-----------------|-------------3-2-|

G|-----------------|
D|-----------------|
A|---------7-------|
E|-0---320-----0---|


Verse 2 -

G|-----------------|-----------------|-----------------|-----------------|
D|-----------------|-----------------|-----------------|-----------------|
A|-----------------|-----------------|-----------------|-----------2-3---|
E|-2-0-2-0-2-0-2-0-|-33003-0-3-0-3-0-|-5-0-55005-003-2-|-0-000000------0-|

G|-----------------|-----------------|-----------------|-----------------|
D|-----------------|-----------------|-----------------|-----------------|
A|-----------------|-----------------|-7---7---7---7---|-----------------|
E|-2-002-002-0-2-0-|-3-003-00330-330-|---00-00---00--0-|-5-0055005-2-3-0-|

G|-----------------|-----------------|-----------------|-----------------|
D|-----------------|-----------------|-----------------|-----------------|
A|-----------------|-5---5---5---5---|-----------------|-----------------|
E|-2-0-2-0-2-0-2-0-|---0---0---0---0-|-5-005-0-5-0-5-0-|-3---------------|

G|-----------------|-----------------|-----------------|-----------------|
D|-----------------|-----------------|-----------------|-----------------|
A|-2-2-----3-3-----|-2-22222-3-2-0-2-|-2222222-3-2-----|-----------------|
E|-----------------|-----------------|-------------3-2-|-2-002---2-002-0-|

G|-----------------|-----------------|-----------------|-----------------|
D|-----------------|-----------------|-----------------|-----------------|
A|-----------------|-----------------|-----------2-3---|-----------------|
E|-33003-0-330-3-00|-5-0-55005-0-3-2-|-0---0-000-------|-2-002-0-220-2-00|

G|-----------------|-----------------|-----------------|-----------------|
D|-----------------|-----------------|-----------------|-----------------|
A|-----------------|-7---7---7---7---|-----------------|-----------------|
E|-3-0-330-3-003-0-|---00-000--00--00|-555555555-2-3-00|-220-2-0022002-0-|

G|-----------------|-----------------|-----------------|-----------------|
D|-----------------|-----------------|-----------------|-----------------|
A|-5---55--55---5--|-----------------|-----------------|-----------2h3---|
E|---00--00---0--0-|-5-0-550-55005-0-|-3---------------|-----------------|


Bridge -

G|-----------------|-----------------|-----------------|-----------------|
D|-----------------|-----------------|-----------------|-----------------|
A|-222222223-2-0-2-|-222222223-2-0-2-|-222222223-2-0-2-|-222222223-2-----|
E|-----------------|-----------------|-----------------|-------------3-2-|

G|-----------------|-----------------|-----------------|-----------------|
D|-----------------|-----------------|-----------------|-----------------|
A|-----------------|-2222222-0-2-0-2-|-3333333-2-2-----|---------7-------|
E|-0-------0-------|-----------------|-------------3-2-|-0---320-----0---|


Chorus 2 -

G|-----------------|-----------------|-----------------|-----------------|
D|-----------------|-----------------|-----------------|-----------------|
A|-----------------|---------7---7---|-5-5-5---5-5-5---|---------7-------|
E|-0---0-0-0---0-0-|-0---3-0---------|-----------------|-0---3-0-----0---|

                                                        3/4
G|-----------------|-----------------|-----------------|-------------|
D|-----------------|-----------------|-----------------|-------------|
A|-----------------|---------7---7---|-022-3---3---222-|-222-222-220-|
E|-0---0-0-0---0-0-|-0---3-0---------|-----------------|-------------|


Bridge -

  4/4
G|-----------------|-----------------|-----------------|-----------------|
D|-----------------|-----------------|-----------------|-----------------|
A|-2-2222223-2-0-2-|-222222223-2-0-2-|-222222223-2-0-2-|-2222222-3-2-----|
E|-----------------|-----------------|-----------------|-------------3-2-|

G|-----------------|-----------------|-----------------|-----------------|
D|-----------------|-----------------|-----------------|-----------------|
A|-222222223-2-0-2-|-222222223-2---0-|-2-2222223-2-0-2-|-222222222-3-2-3-|
E|-----------------|-----------------|-----------------|-----------------|

  2/4
G|---------|
D|---------|
A|---------|
E|-0-1-0-1-|

  4/4
G|-----------------|-----------------|-----------------|-----------------|
D|-----------------|-----------------|-----------------|-----------------|
A|-----------------|-----------------|-----------------|-----------------|
E|-0---X-x-1---X-x-|-0---X-0-3---0---|-X-0-1---X-0-0---|-X-x-0-1-0---X-x-|

G|-----------------|-----------------|-----------------|-----------------|
D|-----------------|-----------------|-----------------|-----------------|
A|-----------------|-----------------|-----------------|-----------------|
E|-1---X-0-0---X-0-|-3---0---X-0-1---|-X-x-0---0-1-0-1-|-0---0-0-1---1-1-|

G|-----------------|-----------------|-----------------|
D|-----------------|-----------------|-----------------|
A|-----------------|-----------------|---------2-3-2-3-|
E|-0---0-0-3---0---|-0-0-1---1-1-0---|-0-1-0-1---------|


Guitar Solo -

G|-----------------|-----------------|-----------------|-----------------|
D|-----------------|-----------------|-----------------|-----------------|
A|-------------5-7-|-------------5-7-|-------------5-7-|-----------------|
E|-1000000-1-0-----|-0-00000-1-0-----|-000000001-0-----|-000000000-1-0-1-|

G|-----------------|-----------------|-----------------|-----------------|
D|-----------------|-----------------|-----------------|-----------------|
A|-------------5-7-|-------------5-7-|-------------5-7-|-----------------|
E|-0000000-1-0-----|-0000000-1-0-----|-000000001-0-----|-0-0-0-0-0-1-0-1-|

G|-----------------|-----------------|-----------------|-----------------|
D|-----------------|-----------------|-----------------|-----------------|
A|-----------------|-----------------|-----------------|-----------------|
E|-222222223-2-0-2-|-222-222-3-2-0-2-|-222222223-2-0-2-|-222222222-3-2-3-|

G|-----------------|-----------------|-----------------|-----------------|
D|-----------------|-----------------|-----------------|-----------------|
A|-----------------|-----------------|-----------------|-----------------|
E|-222222223-2-0-2-|-222222223-2-0-2-|-222222223-2-0-2-|-222-2-0-22--22x0|

  2/4
G|---------|
D|---------|
A|---------|
E|-220-xx2-|

  4/4
G|-----------------|-----------------|-----------------|-----------------|
D|-----------------|-----------------|-----------------|-----------------|
A|-----------------|-----------------|-----------------|-----------------|
E|-2-X02-002-0-2-00|-3-003-003-0-3-0-|-5-005-005-0-5-0-|-0-0000000-2-3-0-|

G|-----------------|-----------------|-----------------|-----------------|
D|-----------------|-----------------|-----------------|-----------------|
A|-----------------|-----------------|-----------------|-----------------|
E|-222222223-2-0-2-|-222222223-2-0-2-|-222222223-2-0-2-|-2-222-0-2-2-2-2-|

                    2/4
G|-----------------|---------|
D|-----------------|---------|
A|-----------------|---------|
E|-2---200-2---2---|-2---2---|

  4/4
G|-----------------|-----------------|-----------------|-----------------|
D|-----------------|-----------------|-----------------|-----------------|
A|-------------5-7-|-------------5-7-|-------------5-7-|-----------------|
E|-0000000-1-0-----|-0000000-1-0-----|-000000001-0-----|-000000001-0-1-0-|

G|-----------------|-----------------|-----------------|-----------------|
D|-----------------|-----------------|-----------------|-----------------|
A|-----------------|-5---55--55--55--|-----------------|-----------------|
E|-2-0-2-0-2-002-0-|---00--00--00--00|-5-005-005-005-0-|-3xx-3xx-333-333-|

G|-----------------|-----------------|-----------------|
D|-----------------|-----------------|-----------------|
A|-----------------|-----------------|-----------------|
E|-333-333-333-333-|-3-------------3-|-3---------------|


Bridge

G|-----------------|-----------------|-----------------|-----------------|
D|-----------------|-----------------|-----------------|-----------------|
A|-------------5-7-|-------------5-7-|-------------5-7-|-----------------|
E|-0---0-0-5-0-----|-0-000-0-1-0-----|-0-000-0-1-0-----|-0-000-0-0-1-0-1-|

G|-----------------|-----------------|-----------------|-----------------|
D|-----------------|-----------------|-----------------|-----------------|
A|-------------5-7-|---------------5-|-7-----------5-7-|-----------------|
E|-000-000-1-0-----|-0-000-0-1-0-----|---000-0-1-0-----|-0-000-0-0-1---1-|

G|-----------------|-----------------|-----------------|-----------------|
D|-----------------|-----------------|-----------------|-----------------|
A|-------------5-7-|-------------5-7-|-------------5-7-|-----------------|
E|-0-000-0-1-0-----|-0-000-0-1-0-----|-0-000-0-1-0-----|-0-000-0-0-1-0-1-|

G|-----------------|-----------------|-----------------|-----------------|
D|-----------------|-----------------|-----------------|-----------------|
A|-------------5-7-|---------------5-|-7-----------5-7-|-----------------|
E|-000-000-1-0-----|-0-000-0-1-0-----|---000-0-1-0-----|-0-000-0-0-1-0-1-|

G|-----------------|-----------------|-----------------|-----------------|
D|-----------------|-----------------|-----------------|-----------------|
A|---------7-------|-----7-----------|-----------------|-----------------|
E|-0---320-----0---|-320-----0---3-0-|-0-------0-------|-000-000-000-000-|

G|-----------------|
D|-----------------|
A|---------7---7\--|
E|-0---320---------|


Verse 3 -

G|-----------------|-----------------|-----------------|-----------------|
D|-----------------|-----------------|-----------------|-----------------|
A|-----------------|-----------------|-----------------|-----------2-3---|
E|-2-0-2-0-2-0-2-0-|-330033033003300-|550055005500-3-2-|-0-000000------0-|

G|-----------------|-----------------|-----------------|-----------------|
D|-----------------|-----------------|-----------------|-----------------|
A|-----------------|-----------------|-5---55--55------|-----------------|
E|-2-00220022002200|-330033003300330-|-0000000000000000|-5-0055005-2-3-0-|

G|-----------------|-----------------|-----------------|-----------------|
D|-----------------|-----------------|-----------------|-----------------|
A|-----------------|-55--55--55--55--|-----------------|-----------------|
E|-2200220022002200|---00--00--00--00|-550055005500550-|-3---------------|


Outro -

G|-----------------|-----------------|-----------------|-----------------|
D|-----------------|-----------------|-----------------|-----------------|
A|-----------2h3---|-2-3-2-3---------|-----------------|-----------------|
E|-----------------|---------0-1-0-1-|-0---X-0-1---X-1-|-0---X-0-3---0---|

G|-----------------|-----------------|
D|-----------------|-----------------|
A|-----------------|-----------------|
E|-0-0-1---1-1-0---|-0-1-0-1-0-------|





Comments


Popular Metallica tabs & chords
Enter Sandman 2 Bass Tabs
Fuel 1 Chords
Creeping Death 1 Drum Tabs
All Nightmare Long 4 Tabs
Blackened Tabs
Fade To Black 2 Tabs
Follow Me Tabs
Free Speech For The Dumb Tabs
Green Hell 1 Tabs
Helpless 1 Tabs


Song lyrics



↑ Back to top | Tablatures and chords are parodies/interpretations of the original songs. You may use it for private study, scholarship, research or language learning purposes only
© 2014 AZChords.com Contact us | Privacy policy | DMCA | Add/correct tabs | Request tabs | Top 50 tabs