» » »

Dyers Eve Bass tabs (ver.2)

Artists:  A B C D E F G H I J K L M N O P Q R S T U V W X Y Z # 

Dyers Eve Bass tabs (ver.2)

Metallica
Rating:
0/5 (0 votes)

Hard to play? Try these video lessons and learn fast.
                Band - Metallica
Song - Dyers Eve
Album - …And Justice For All
Words and Music by James Hetfield, Lars Ulrich and Kirk Hammet

I have the book for this album, but this is the way I like playing it.
It's much easier this way.

  Moderate Rock = 102
  Half Time Feel
Intro
  4/4                               3/4          4/4
||-----------------|---------------|------------|---------------|
||-----------------|---------------|------------|---------------|
||-2-3-2-3---------|---------------|------------|---------------|
||---------0-1-0-1-|-0------1------|-0-------3--|-0------1------|

 3/4          4/4             3/4         4/4            3/4
|------------|---------------|-----------|--------------|-------------||
|------------|---------------|-----------|--------------|-------------||
|------------|---------------|-----------|--------------|-------------||
|-0------0-1-|-0------1------|-0------3--|-0------1-----|-0---0-1-0-1-||

  4/4                3/4          4/4               3/4
||------------------|------------|-----------------|-------------|
||.-----------------|------------|-----------------|-------------|
||.-----------------|------------|-----------------|-------------|
||--0---0-0-1---1-1-|-0---0-0-3--|-0---0-0-1---1-1-|-0---0-0-0-1-|

 4/4               3/4          4/4               3/4
|-----------------|------------|-----------------|--------------||
|-----------------|------------|-----------------|-------------.||
|-----------------|------------|-----------------|-------------.||
|-0---0-0-1---1-1-|-0---0-0-3--|-0---0-0-1---1-1-|-0---0-1-0-1--||


 4/4     drum fill  Fast Rock = 194
|-------|---------||--------------------------|--------------------------|
|-------|---------||--------------------------|--------------------------|
|-------|---------||-2-2-2-2-2-2-2-2-3\2--0h2-|-2-2-2-2-2-2-2-2-3\2--0h2-|
|-0-----|-(0)-----||--------------------------|--------------------------|


|--------------------------|----------------------------|
|--------------------------|----------------------------|
|-2-2-2-2-2-2-2-2-3\2--0h2-|-2-2-2-2-2-2-2-2-3--2-------|
|--------------------------|-----------------------3--2-|


|--------------------------|---------------------------|
|--------------------------|---------------------------|
|-2-2-2-2-2-2-2-2-3\2--0h2-|-2-2-2-2-2-2-2-2-3\2-----0h|
|--------------------------|---------------------------|


|-------------------------|----------------------------|
|-------------------------|----------------------------|
|h2--2-2-2-2-2-2-3\2--0h2-|-2-2-2-2-2-2-2-2-3--2-------|
|-------------------------|-----------------------3--2-|


|-------------|-------------|----------------------------|
|-------------|-------------|----------------------------|
|-------------|-------------|-2-2-2-2-2-2-2-2-0--2--0--2-|
|-0-----0-----|-0-----0-----|----------------------------|


|-------------------------|--------------------|-------------------|
|-------------------------|--------------------|-------------------|
|-3--3--3--3--2--0--------|-----------7--------|-5--------3--------|
|-------------------3--2--|-0---0-0-0----0-0-0-|----0-0-0----0-0-0-|


|---------------------------|-------------------------|
|---------------------------|-------------------------|
|-2--2-2-2-2-2-2-0--2--0--2-|-3--3--3--3--2--0--------|
|---------------------------|-------------------3--2--|


|-------------------|-------------------|-----------------------------|
|-------------------|-------------------|-----------------------------|
|----------7--------|-5--------3--------|-2-2-2-2-2-2-2-2-0--2--0--2--|
|-0-----------------|-------------------|-----------------------------|

                            4/4
|-------------------------||---------------------------|
|-------------5--4--------||.--------------------------|
|-3--3--3--3--------5--3--||.-2-2-2-2-2-2-2-2-3\2--0h2-|
|-------------------------||---------------------------|


|--------------------------|--------------------------|
|--------------------------|--------------------------|
|-2-2-2-2-2-2-2-2-3\2--0h2-|-2-2-2-2-2-2-2-2-3\2--0h2-|
|--------------------------|--------------------------|


|-----------------------------|--------------------------|
|-----------------------------|--------------------------|
|-2-2-2-2-2-2-2-2-3--2--------|-2-2-2-2-2-2-2-2-3\2--0h2-|
|-----------------------3--2--|--------------------------|


|--------------------------|-------------------------|
|--------------------------|-------------------------|
|-2-2-2-2-2-2-2-2-3\2----0h|2--2-2-2-2-2-2-3\2--0h2--|
|--------------------------|-------------------------|


|-----------------------------|--------------------||
|-----------------------------|--------------------||
|-2-2-2-2-2-2-2-2-3--2--------|-----------7----7---||
|-----------------------3--2--|-0---0-0-0------0---||


  1st, 2nd, 3rd Verses
  %
||-----------------|-----------------|-----------------|----------------|
||-----------------|-----------------|-----------------|----------------|
||-----------------|-----------------|-----------------|-----------2-3--|
||-2-2-2-2-2-2-2-2-|-3-3-3-3-3-3-3-3-|-5-5-5-5-5-5-5-5-|-0-0-0-0-0------|
   *If you can do it, play 16th notes. If not, play it like this.


|-----------------|-----------------|-----------------|-----------------|
|-----------------|-----------------|-----------------|-----------------|
|-----------------|-----------------|-----------------|-----------------|
|-2-2-2-2-2-2-2-2-|-3-3-3-3-3-3-3-3-|-0-0-0-0-0-0-0-0-|-5-5-5-5-5-2-3-0-|

                                             To Coda &
|-----------------|-----------------|-----------------|----------------|
|-----------------|-----------------|-----------------|----------------|
|-----------------|-5-5-5-5-5-5-5-5-|-----------------|----------------|
|-2-2-2-2-2-2-2-2-|-----------------|-5-5-5-5-5-5-5-5-|-3--------------|


|--------------|--------------------------|--------------------------|
|--------------|--------------------------|--------------------------|
|-3-2----3-3---|-2-2-2-2-2-2-2-2-3\2--0h2-|-2-2-2-2-2-2-2-2-3\2--0h2-|
|--------------|--------------------------|--------------------------|


|-----------------|-----------------|-----------------|----------------|
|-----------------|-----------------|-----------------|----------------|
|-----------------|-----------------|-----------------|-----------2-3--|
|-2-2-2-2-2-2-2-2-|-3-3-3-3-3-3-3-3-|-5-5-5-5-5-5-5-5-|-0-0-0-0-0------|


|-----------------|-----------------|-----------------|-----------------|
|-----------------|-----------------|-----------------|-----------------|
|-----------------|-----------------|-----------------|-----------------|
|-2-2-2-2-2-2-2-2-|-3-3-3-3-3-3-3-3-|-0-0-0-0-0-0-0-0-|-5-5-5-5-5-2-3-0-|


|-----------------|-----------------|-----------------|---------------|
|-----------------|-----------------|-----------------|---------------|
|-----------------|-5-5-5-5-5-5-5-5-|-----------------|---------------|
|-2-2-2-2-2-2-2-2-|-----------------|-5-5-5-5-5-5-5-5-|-3-------------|


|------------------------|--------------------------|
|------------------------|--------------------------|
|-x-x-x--x--x-x-x--x--3--|-2-2-2-2-2-2-2-2-3\2--0h2-|
|------------------------|--------------------------|


|--------------------------|--------------------------|
|--------------------------|--------------------------|
|-2-2-2-2-2-2-2-2-3\2--0h2-|-2-2-2-2-2-2-2-2-3\2--0h2-|
|--------------------------|--------------------------|


|-----------------------------|-----------|-----------------------------|
|-----------------------------|-----------|-----------------------------|
|-2-2-2-2-2-2-2-2-3--2--------|-----------|-2-2-2-2-2-2-2-2-0--2--0--2--|
|-----------------------3--2--|-0----0----|-----------------------------|


                                                Chorus
|-------------------------|-------------------||---------------------------|
|-------------------------|-------------------||---------------------------|
|-3--3--3--3--2--0--------|-----------7---7---||---------------------------|
|-------------------3--2--|-0---0-0-0-----0---||-0-0-0--0--0--0-0-0--0--0--|


|-------------------|-----------------------|-------------------|
|-------------------|-----------------------|-------------------|
|-----------7---7---|-5-5-5--5---5-5-5--5---|-----------7---7---|
|-0---0-0-0-----0---|-----------------------|-0---0-0-0-----0---|


|---------------------------|-------------------|
|---------------------------|-------------------|
|---------------------------|-----------7---7---|
|-0-0-0--0--0--0-0-0--0--0--|-0---0-0-0-----0---|

                      3/4
|--------------------|------------------------||
|--------------------|-----------------------.||
|-3-3-3--3--3--2-2-2-|--2-2-2--2-2-2--2-2-2--.||
|--------------------|------------------------||

 4/4
|--------------------------|--------------------------|
|--------------------------|--------------------------|
|-2-2-2-2-2-2-2-2-3\2--0h2-|-2-2-2-2-2-2-2-2-3\2--0h2-|
|--------------------------|--------------------------|


|--------------------------|-----------------------------|
|--------------------------|-----------------------------|
|-2-2-2-2-2-2-2-2-3\2--0h2-|-2-2-2-2-2-2-2-2-3--2--------|
|--------------------------|-----------------------3--2--|


|--------------------------|---------------------------|
|--------------------------|---------------------------|
|-2-2-2-2-2-2-2-2-3\2--0h2-|-2-2-2-2-2-2-2-2-3\2-----0h|
|--------------------------|---------------------------|

                                                         2/4
|-------------------------|-----------------------------|-------------||
|-------------------------|-----------------------------|-------------||
|h2--2-2-2-2-2-2-3\2--0h2-|-2-2-2-2-2-2-2-2-2--3--2--3--|-------------||
|-------------------------|-----------------------------|-0--1--0--1--||
                                      
                                                    ______________
                                                   |1.
  4/4                3/4          4/4              |3/4        
||------------------|------------|-----------------|--------------||
||.-----------------|------------|-----------------|-------------.||
||.-----------------|------------|-----------------|-------------.||
||--0---0-0-1---1-1-|-0---0-0-3--|-0---0-0-1---1-1-|-0---0-0-0-1--||


 ______________
|2.3.                        Guitar Solo
|3/4             2/4        4/4    
|--------------||---------||---------------------------|
|-------------.||---------||.--------------------------|
|-------------.||-2-3-2-3-||.-----------------3\2--0h2-|
|-0---0-1-0-1--||---------||--0-0-0-0-0-0-0-0----------|


|--------------------------|--------------------------|
|--------------------------|--------------------------|
|-----------------3\2--0h2-|-----------------3\2--0h2-|
|-0-0-0-0-0-0-0-0----------|-0-0-0-0-0-0-0-0----------|


|-----------------------------||---------------------------|
|----------------------------.||---------------------------|
|----------------------------.||---------------------------|
|-0-0-0-0-0-0-0-0-0--1--0--1--||--2-2-2-2-2-2-2-2-3\2--0h2-|


|--------------------------|--------------------------|
|--------------------------|--------------------------|
|--------------------------|--------------------------|
|-2-2-2-2-2-2-2-2-3\2--0h2-|-2-2-2-2-2-2-2-2-3\2--0h2-|

 _____________________________  _______________________________
|1.                            |2.
|-----------------------------||-------------------------------|
|----------------------------.||-------------------------------|
|----------------------------.||-------------------------------|
|-2-2-2-2-2-2-2-2-2--3--2--3--||-2-2-2-2-2-2-2-2-2-2-2--2-2-2--|

 2/4             4/4
|---------------|-----------------|-----------------|-----------------|
|---------------|-----------------|-----------------|-----------------|
|---------------|-----------------|-----------------|-----------------|
|-2-2-2--2-2-2--|-2-2-2-2-2-2-2-2-|-3-3-3-3-3-3-3-3-|-5-5-5-5-5-5-5-5-|


|------------------|--------------------------|--------------------------|
|------------------|--------------------------|--------------------------|
|------------2--3--|--------------------------|--------------------------|
|-0-0-0-0-0--------|-2-2-2-2-2-2-2-2-3\2--0h2-|-2-2-2-2-2-2-2-2-3\2--0h2-|


|--------------------------|-------------------------------|
|--------------------------|-------------------------------|
|--------------------------|-------------------------------|
|-2-2-2-2-2-2-2-2-3\2--0h2-|-2-2-2-2-2-2-2-2-2-2-2--2-2-2--|

 2/4             4/4
|---------------|-----------------------------|
|---------------|-----------------------------|
|---------------|-----------------------------|
|-2-2-2--2-2-2--|-2-2-2--2-2-2--2-2-2--2-2-2--|


|--------------------------|--------------------------|
|--------------------------|--------------------------|
|-----------------3\2--0h2-|-----------------3\2--0h2-|
|-0-0-0-0-0-0-0-0----------|-0-0-0-0-0-0-0-0----------|


|--------------------------|-----------------------------|-----------------|
|--------------------------|-----------------------------|-----------------|
|-----------------3\2--0h2-|-----------------------------|-----------------|
|-0-0-0-0-0-0-0-0----------|-0-0-0-0-0-0-0-0-0--1--0--1--|-2-2-2-2-2-2-2-2-|


|-----------------|-----------------|-----------------------------|
|-----------------|-----------------|-----------------------------|
|-5-5-5-5-5-5-5-5-|-----------------|-----------------------------|
|-----------------|-5-5-5-5-5-5-5-5-|-3-3-3--3-3-3--3-3-3--3-3-3--|


|-----------------------------|-----------------|--------------||
|-----------------------------|-----------------|--------------||
|-----------------------------|-----------------|--------------||
|-3-3-3--3-3-3--3-3-3--3-3-3--|-3-------------3-|-3------------||

 Moderate Rock = 168
 Bridge
|--------------------------|--------------------------|
|--------------------------|--------------------------|
|---------------8\7--5--7--|---------------8\7--5--7--|
|-0--0-0-0--0-0------------|-0--0-0-0--0-0------------|


|--------------------------|---------------------------|
|--------------------------|---------------------------|
|---------------8\7--5--7--|---------------------------|
|-0--0-0-0--0-0------------|-0--0-0-0--0-0-0--1--0--1--|


|--------------------------|--------------------------|
|--------------------------|--------------------------|
|---------------8\7-----5--|---------------8\7--5--7--|
|-0--0-0-0--0-0------------|-0--0-0-0--0-0------------|


|--------------------------|------------------------|
|--------------------------|------------------------|
|---------------8\7--5--7--|------------------------|
|-0--0-0-0--0-0------------|-0--0-0-0--0-0-0--1--1--|


||--------------------------|--------------------------|
||.-------------------------|--------------------------|
||.--------------8\7--5--7--|---------------8\7-----5--|
||-0--0-0-0--0-0------------|-0--0-0-0--0-0------------|


|--------------------------|----------------------------||
|--------------------------|---------------------------.||
|---------------8\7--5--7--|---------------------------.||
|-0--0-0-0--0-0------------|-0--0-0-0--0-0-0--1--0--1---||

 3/4
|--------------|-------------|------------|---------------|
|--------------|-------------|------------|---------------|
|-----------7--|----------7--|------------|---------------|
|-0---0-0-0----|-0--0-0-0----|-0---0-0-0--|-0-0-0--0-0-0--|

 4/4                                       
|-----------------------------|------------------||
|-----------------------------|------------------||
|-----------------------------|-----------7---7--||
|-0-0-0--0-0-0--0-0-0--0-0-0--|-0---0-0-0-----0--|| D.S. al Coda %

 Coda &
|----------------|--------------------------|------------------------|
|----------------|--------------------------|------------------------|
|----------------|-x-x-x--x--x-x-x--x--3----|-2--3--2--3-------------|
|-3--------------|--------------------------|------------0--1--0--1--|

                  3/4           4/4               3/4           4/4
|----------------|-------------|-----------------|-------------|---------||
|----------------|-------------|-----------------|-------------|---------||
|----------------|-------------|-----------------|-------------|---------||
|-0---0-0-1--1-1-|-0---0-0-3---|--0---0-0-1--1-1-|-0---0-1-0-1-|-0-------||


/ - slide up
\ - slide down
x - mute string
h - hammer on
p - pull off



Lyrics

Verse 1
Dear Mother, dear Father. What is this hell you have put me through?
Believer, deceiver. Day in, day out, live my life for you.
Pushed onto me what’s wrong or right.
Hidden from this thing that they call life.

Dear Mother, dear Father. Every thought I’d think you’d disapprove.
Curator, dictator. Always censoring my every move.
Children are seen but are not heard.
Tear out everything inspired.

Chorus
Innocence. Torn from me without your shelter.
Barred reality. I’m living blindly.

Verse 2
Dear Mother, dear Father. Time has frozen still what’s left to be.
Hear nothing, say nothing. Cannot face the fact I think for me.
No guarantee, it’s life as is.
But damn you for not giving me my chance.
Dear Mother, dear Father. You clipped my wings before I learned to fly.
Unspoiled, unspoken. I’ve outgrown that f**king lullaby.
Same thing I’ve always heard from you.
Do as I say not as I do.

Bridge
I’m in hell without you.
Cannot cope without you two.
Shocked at the world that I see.
Innocent victim, please rescue me.

Verse 3
Dear Mother, dear Father. Hidden in your world you’ve made for me.
I’m seething, I’m bleeding. Ripping wounds in me that never heal.
Undying spite I feel for you.
Living out this hell you always knew.
            
Hard to play? Try these video lessons and learn fast. | Correct




comments powered by Disqus
↑ Back to top | Tablatures and chords are parodies/interpretations of the original songs. You may use it for private study, scholarship, research or language learning purposes only