>
 >
Dyers Eve

Dyers Eve Drum Tabs

Metallica - Dyers Eve chords, tabs, tablatures, lyrics

Guitar lessons | Add/correct | Request | Top 50 tabs Artists:  A B C D E F G H I J K L M N O P Q R S T U V W X Y Z 0-9

Dyers Eve Drum Tabs – Metallica

CD, Sheet music, Poster

Do you like Dyers Eve? Share with your friends now
Bass TabsBass Tabs v2Bass Tabs v3Bass Tabs v4Drum TabsTabsTabs v2Tabs v3Tabs v4
Drummer:  Lars Ulrich
Length:  5:12
Note:  when theres three triplets (ttt) in a row in between 8th note high hats they are 16th note
           triplets.  C=choke.  Ch= China

Intro
C  |----------------|C-------C-------|     |C-------C---|    |C-----C------|
S  |o-o-o-o-o-o-o-o-|----------------|  3/4|------------| 4/4|-------------| 
t3 |o-o-o-o-o-o-o-o-|----------------|     |------------|    |-------------|
B  | ---------------|0-------0-------|     |0-------0---|    |0-----0------|

C     |C-----------|    |X-------X-------|    |X-------X---|    
S  3/4|--------o-o-| 4/4|----------------| 3/4|------------| 
B     |0-----------|    |0-------0-------|    |0-------0---|   

C  4/4|X-------X-------|    |X-----------|
S     |----------------| 3/4|----o-o-o-o-|
B     |0-------0-------|    |0-----------|

Intro part 2:
C     |X-------X-------|    |X-------X---|    |X-------X-------|
t2 4/4|----o-o-----o-o-| 3/4|----o-o-----| 4/4|----o-o-----o-o-|
t3    |----o-o-----o-o-|    |----o-o-----|    |----o-o-----o-o-|
B     |0-------0-------|    |0-------0---|    |0-------0-------|

       ____________________________________________
      |1.  3.      |2. 4.       | 5.              |
C     |X-----------|X-----------|X----------------|
S  3/4|--------o-o-|----o-o-o-o-|-----------------| 
t2    |----o-o-----|------------|-----------------|  note: 5. Isn't in time
t3    |----o-o-----|------------|-----------------|
B     |0-----------|0-----------|0----------------|

T1  |ftt-----------------------------|
T2  |---ftt--------------------------|
T3  |------ftt-----------------------|
T4  |---------ftt--------------------|
T5  |------------ftt-----------------|
T6  |---------------ftt--------------| Note: its fun to mess with this a little 
T7  |------------------ftt-----------| bit and change it up
T8  |---------------------ftt--------|
T9  |------------------------o-------|
T10 |-------------------------o------|
T13 |--------------------------o-----|
T14 |---------------------------o----|

Intro part 3:            
                     |  repeat 2x      |
C  |X----------------|-----------------|----------X----X-|--X--------------|
H  |--x-x--x-x-x-x-x-|x-x-x--x-x-x-x-x-|x-x-x-x-x---x----|x---x--x-x-x-x-x-|
S  |--o----o---o---o-|--o----o---o---o-|--o---o---o----o-|--o----o---o---o-|
B  |0---ttt-0-0---0--|0---ttt-0-0---0--|0---0---0---ttt--|0---ttt-0---0-0--|

                                                          |  repeat 2x     |
C  |------------------|--X--------------|-----------------|C-------C-------|
H  |x-x-x--x-x-x-x--x-|x---x--x-x-x-x-x-|x-x-x--x-x-x-x-x-|----------------|
S  |--o----o---o----o-|--o----o---o---o-|--o----o---o---o-|----------------|
B  |0---ttt--0---ttt--|0---ttt--0--0-0--|0---ttt--0---ttt-|0-------0-------|


C  |X----------------|------------------|--X--------X------|--X--------X----
H  |--x-x--x-x-x-x-x-|x-x-x--x-x-x-x----|----x--x-x---x--x-|x---x--x-x---x-x
S  |--o----o---o---o-|--o----o---o----f-|--o----o---o----o-|--o----o---o---o
B  |0---ttt--0--0-0--|0---ttt--0----ttt-|0---ttt--0---ttt--|0---ttt--0--ttt-

                      |  repeat 2x      |
C  |--X--------X------|-----------------|
H  |x---x--x-x---x--x-|x-x-x-x-x-x-x--x-|
S  |--o----o---o----o-|--o---o---o----o-|
B  |0---ttt--0---ttt--|0--0-0--0---ttt--|

C  |C-------C-------|C-------C-------|
t1 |----ooo-----ooo-|----------------|
t2 |----------------|----ooo---------|
t3 |----------------|------------ooo-|
B  |0-------0-------|0-------0-------|

                                                         |  repeat 2x      |
C  |X-----------------|----------------|X----------------|-----------------|
H  |--x-x--x-x-x-x--x-|----------------|--x-x--x-x-x-x-x-|x-x-x--x-x-x-x-x-|
S  |--o----o---o----o-|ooooooooo-o-o-o-|--o----o---o---o-|--o----o---o---o-|
B  |0---ttt--0---ttt--|----------------|0---ttt--0--0-0--|0---ttt--0--0-0--|

C  |-----------X----X-|--X----X---X------|----------------|--X-------------|
H  |x-x-x--x-x---x----|x---x----x---x--x-|x-x-x-x-x-x-x---|x---x--x-x-x-x-x|
S  |--o----o---o----o-|--o----o---o----o-|--o---o---o-----|--o----o---o---o|
B  |0---ttt--0---ttt--|0---ttt--0---ttt--|0--0-0-0-----d--|0---ttt--0--0-0-|

C  |-----------------|X------------X---|
H  |x-x-x--x-x-x-x-x-|-----------------|
S  |--o----o---o---o-|----o----f---o---|
B  |0---ttt--0---0---|0-----ttt--------|

Verse 1:
   | repeat 11x     |          
C  |X---------------|X-X-X-X-X-X---X-|X---------------|X----------------|
Ch |----------------|----------------|--------X-X-----|-----------------|
H  |--x-x-x-x-x-x-x-|----------------|----------------|--x-x--x-x-x-x-x-|
S  |--o---o---o---o-|--o---o---o---o-|o-------o-o-----|--o----o---o---o-|
B  |0000000000000000|0000000000000000|00000000--------|0---ttt--0--0-0--|

                     |   repeat 11x   |
C  |-----------------|X---------------|X-X-X-X-X-X-X-X-|----------------|
H  |x-x-x--x-x-x-x-x-|--x-x-x-x-x-x-x-|----------------|------------x---|
S  |--o----o---o---o-|--o---o---o---o-|--o---o---o---o-|ooo-o-ooo-o-o---|
B  |0---ttt--0--0-0--|0000000000000000|0000000000000---|----------------|

                     |  repeat 2x      |
C  |X----------------|-----------------|------------------|C-------C-------|
H  |--x-x--x-x-x-x-x-|x-x-x--x-x-x-x-x-|x-x-x--x-x-x-x--x-|----------------|
S  |--o----o---o---o-|--o----o---o---o-|--o----o---o----o-|----------------|
B  |0---ttt--0--0-0--|0---ttt--0--0-0--|0---ttt--0---ttt--|0-------0-------|

C  |X----------------|-----------------|C------------X---|
H  |--x-x--x-x-x-x-x-|x-x-x--x-x-x-x-x-|-----------------|
S  |--o----o---o---o-|--o----o---o---o-|----o----f---o---|
t1 |-----------------|-----------------|-----o-----------|
B  |0---ttt--0--0-0--|0---ttt--0--0-0--|0-----ttt--------|





Chorus:  
                    |  repeat 2x     |
C  |X---------------|----------------|-------------X---|X---------------|
H  |----x---x---x---|x---x---x---x---|x---x------------|----x---x---x---|
S  |----o-------o---|----o-------o---|----o----f---o---|----o-------o---|
B  |0-------0-------|0-------0-------|0-----ttt--------|0-------0-------|

C  |----------------|----X---X-------|    |X---X---X---|
H  |x---x---x---x---|----------------| 3/4|------------|
S  |----o-------o---|ooo---------f---|    |o---o---o---|
B  |0-------0-------|----0---0---000-|    |00000000----|

PART 3
                     |  repeat 2x      |
C  |X----------------|-----------------|-----------X----X-|--X-------------|
H  |--x-x--x-x-x-x-x-|x-x-x--x-x-x-x-x-|x-x-x--x-x---x----|x---x--x-x-x-x-x|
S  |--o----o---o---o-|--o----o---o---o-|--o----o---o----o-|--o----o---o---o|
B  |0---ttt--0--0-0--|0---ttt--0--0-0--|0---ttt--0---ttt--|0---ttt--0--0-0-

C  |-----------------|--X--------------|------------------|X------------X--|
H  |x-x-x--x-x-x-x---|----x--x-x-x-x-x-|x-x-x--x-x-x-x--x-|----------------|
S  |--o----o---o---f-|--o----o---o---o-|--o----o---o----o-|----o----f---o--|
t1 |-----------------|-----------------|------------------|-----o----------|
B  |0---ttt--0-----d-|0---ttt--0--0-0--|o---ttt--0---ttt--|0-----ttt-------|

Repeat Verse 1 for Verse 2

Repeat Chorus

                     |  repeat 2x      | 
C  |X----------------|-----------------|-----------X----X-|--X----X---X---X|
H  |--x-x--x-x-x-x-x-|x-x-x--x-x-x-x-x-|x-x-x--x-x---x----|x---x----x---x--|
S  |--o----o---o---o-|--o----o---o---o-|--o----o---o----o-|--o----o---o--o-|
B  |0---ttt--0--0-0--|0---ttt--0--0-0--|0---ttt--0---ttt--|0---ttt--0---ttt|

C  |------------------|--X---------------|    |-------------------------|
H  |x-x-x--x-x-x-x--x-|x---x--x-x-x-x--x-|    |x-x-x--x-----------------|   
S  |--o----o---o----o-|--o----o---o----o-| 6/4|--o----o-o-o-o-o-o-o-o-o-|
Ft |------------------|------------------|    |---------o-o-o-o-o-o-o-o-|   
B  |0---ttt--0---ttt--|0---ttt--0---ttt--|    |0---ttt------------------|

PART 4
C     |X-------X-------|    |X-------X---|    |X-------X-------|
t2 4/4|----o-o-----o-o-| 3/4|----o-o-----| 4/4|----o-o-----o-o-|
t3    |----o-o-----o-o-|    |----o-o-----|    |----o-o-----o-o-|
B     |0-------0-------|    |0-------0---|    |0-------0-------|

      __________________________
      |  1.        | 2.  3.     |
C     |X-----------|X-----------|
S  3/4|--------o-o-|----o-o-o-o-|
t2    |----o-o-----|------------|
t3    |----o-o-----|------------|
B     |0-----------|0-----------|

S   2/4|o-o-o-o-|
t3     |o-o-o-o-|





Guitar Solo
C  |X----------------|-----------------|-----------------|-----------------|
H  |--x-x--x-x-x-x-x-|x-x-x--x-x-x-x-x-|x-x-x--x-x-x-x-x-|x-x-x--x-x-x-x-x-|
S  |--o----o---o---o-|--o----o---o---o-|--o----o---o---o-|--o----o---o---o-|
B  |0---ttt--0--0-0--|0---ttt--0--0-0--|0---ttt--0--0-0--|0---ttt--0--0-0--|

PART 5
                     |  repeat 2x      |
C  |X----------------|-----------------|--------X---X---|    |X---X---|
H  |--x-x--x-x-x-x-x-|x-x-x--x-x-x-x-x-|x-x-x-x---------| 2/4|--------|
S  |--o----o---o---o-|--o----o---o---o-|--o---o-o---o---|    |o---o---|
B  |0---ttt--0--0-0--|0---ttt--0--0-0--|0----0--00000000|    |00000000|

      |  repeat 4x     |  repeat 3x      |
C     |X---------------|X----------------|X--------X---X---|    |X---X---|
H  4/4|--x-x-x-x-x-x-x-|--x-x--x-x-x-x-x-|--x-x--x---------| 2/4|--------|
S     |--o---o---o---o-|--o----o---o---o-|--o----o-o---o---|    |o---o---|
B     |0000000000000000|0---ttt--0--0-0--|0---ttt--00000000|    |00000000|

                       |  repeat 4x      |  repeat 3x     |
C     |----------------|X----------------|X---------------|
Ch    |X---X---X---X---|-----------------|----------------|
H  4/4|----------------|--x-x--x-x-x-x-x-|--x-x-x-x-x-x-x-|
S     |o---o---o---o---|--o----o---o---o-|--o---o---o---o-|
B     |0000000000000---|0---ttt--0--0-0--|0000000000000000|

S  |o---o---o---o---|o---o----o----o----|o-------------o-|o---------------|
Ft |o---o---o---o---|o---o----o----o----|o-------------o-|o---------------|
B  |0000000000000000|00000-ttt--ttt--ttt|----------------|----------------|

PART 6
C  |X---------------|----------------|----------------|--------------X-|  
H  |----x---x---x---|x---x---x---x---|x---x---x---x---|x---x---x---x---|
S  |----o-------o---|----o-------o---|----o-------o---|----o-------o---|
B  |0-------0-------|0-------0-----0-|0-------0-------|0-------0-----0-|

C  |X---------------|--------------X-|X---------------|----------C---X-|
H  |----x---x---x---|x---x---x---x---|----x---x---x---|x---x---x-------|
S  |----o-------o---|----o-------o---|----o-------o---|----o-----------|
B  |0-------0-------|0-------0-----0-|0-------0-------|0---------0---0-|

Bridge
                                                      |  repeat 3x     |
C  |X---------------|----------------|X---------------|----------------|
H  |----x---x---x---|x---x---x---x---|----x---x---x---|x---x---x---x---|
S  |----o-------o---|----o-------o---|----o-------o---|----o-------o---|
B  |0-------0-----0-|0-------0-----0-|0-------0-----0-|0-------0-----0-|

C  |X---------------|----------------|    |-------------|    
H  |----x---x---x---|x---x---x---x---| 3/4|x------------| 
S  |----o-------o---|----o-------o---|    |----o----f---|
B  |0-------0-----0-|0-------0-------|    |0-----ttt----|

C  |-------------|---------C---|----C-------|    |X---X---X---X---|
S  |----o----f---|----o----o---|----o-------| 4/4|o---o---o---o---|
B  |0-----ttt----|0-----ttt----|------------|    |0000000000000---|

C  |-------------X---|
S  |----o----f---o---|
B  |0-----ttt--------|



Verse 3
   |  repeat 11x|   |
C  |X---------------|X-X-X-X-X-X-X-X-|----------------|----------------|
H  |--x-x-x-x-x-x-x-|----------------|------------x---|----------------|
S  |--o---o---o---o-|--o---o---o---o-|ooo-o-ooo-o-o---|o-o-o-o-o-o-o-o-|
Ft |----------------|----------------|----------------|o-o-o-o-o-o-o-o-|
B  |0000000000000000|0000000000000---|----------------|----------------|

C  |X-------X-------|    |X-------X---|    |X-------X-------|    
S  |----------------| 3/4|------------| 4/4|----------------| 
t2 |----o-o-----o-o-|    |----o-o-----|    |----o-o-----o-o-| 
t3 |----o-o-----o-o-|    |----o-o-----|    |----o-o-----o-o-|    
B  |0-------0-------|    |0-------0---|    |0-------0-------|    

C     |X-------X-X-|C--------------|
S  3/4|----o-o-----|---------------|
B     |0-------0-0-|0--------------|





Comments


Popular Metallica tabs & chords
Dazed And Confused Bass Tabs
God Of Thunder 1 Bass Tabs
Mercyful Fate Medley 1 Bass Tabs
Battery Drum Tabs
Hero Of The Day Drum Tabs
Dyers Eve Tabs
Hero Of The Day Tabs
Master Of Puppets Intro Correct Tabs
Nothing Else Matters Full With Tabs
Some Kind Of Monster 1 Tabs


Song lyrics



↑ Back to top | Tablatures and chords are parodies/interpretations of the original songs. You may use it for private study, scholarship, research or language learning purposes only
© 2014 AZChords.com Contact us | Privacy policy | DMCA | Add/correct tabs | Request tabs | Top 50 tabs