>
 >
Disposable Heroes 5

Disposable Heroes 5 Guitar Tabs

Metallica - Disposable Heroes 5 chords, tabs, tablatures, lyrics

Guitar lessons | Add/correct | Request | Top 50 tabs Artists:  A B C D E F G H I J K L M N O P Q R S T U V W X Y Z 0-9

Disposable Heroes 5 Guitar Tabs – Metallica

CD, Sheet music, Poster

Do you like Disposable Heroes 5? Share with your friends now
Bass TabsBass Tabs v2Bass Tabs v3Drum TabsTabsTabs v2Tabs v3Tabs v4Tabs v5
This is the right way so dont fuck


|------------------------------------|-------------------------12--|
|-----15-------15-------15-------15--|-----------------------------|
|--14b16----14b16----14b16----14b16--|---14p12------12--14b16------|
|------------------------------------|----------14-----------------|
|------------------------------------|-----------------------------|
|------------------------------------|-----------------------------|


|----------------------------------------------12------|
|--15--12------12--15--12----12----15--12--15------12--|
|----------14------------------------------------------|
|------------------------------------------------------|
|------------------------------------------------------|
|------------------------------------------------------|


|---------12---------12----------------12--|--22b24--22b24------22b24--22p19--|
|--15b17------15b17------15b17--15b17------|----------------------------------|
|------------------------------------------|----------------------------------|
|------------------------------------------|----------------------------------|
|------------------------------------------|----------------------------------|
|------------------------------------------|----------------------------------|


|-22p19------19------------19------------|--------19--------------------19------------|
|--------22------22b24---------22p19--22-|-22b24------22p19--22--22b24------22p19--22-|
|----------------------------------------|--------------------------------------------|
|----------------------------------------|--------------------------------------------|
|----------------------------------------|--------------------------------------------|
|----------------------------------------|--------------------------------------------|


|---------19---------19--------------|--19--20--22--20--19\17--19--17\15--17--15\14--|
|--22b24------22b24------22b23--b24--|-----------------------------------------------|
|------------------------------------|-----------------------------------------------|
|------------------------------------|-----------------------------------------------|
|------------------------------------|-----------------------------------------------|
|------------------------------------|-----------------------------------------------|


|--15--17--14--15--14\12--14--12\10--12--10------|
|--------------------------------------------13--|
|------------------------------------------------|
|------------------------------------------------|
|------------------------------------------------|
|------------------------------------------------|


|------10--12--10--------------------------------|
|--13--------------13--12----10--12--10----------|
|----------------------------------------12--11--|
|------------------------------------------------|
|------------------------------------------------|
|------------------------------------------------|


           T         T      T         T        T            T
|-------------------------------------------------------------------|
|--15p12--17p15p12--17p15--17p12h15--17p12h15--17p12h15----17p12\8--|
|-------------------------------------------------------------------|
|-------------------------------------------------------------------|
|-------------------------------------------------------------------|
|-------------------------------------------------------------------|


|----------------------------------------|-------------------------------------|
|----------------------------------------|-------------------------------------|
|--9b11--(11)--(11)--(11)--(11)----(11)--|--(11)--(11)--(11)--(11)----r7----9--|
|----------------------------------------|-------------------------------------|
|----------------------------------------|-------------------------------------|
|----------------------------------------|-------------------------------------|
        hold bend

                                                    w/ bar
|-----------------------------------|------------------------|
|-----------------------------------|------------------------|
|--9b11--r9-p7-----7--9p7-----------|------------------------|
|---------------9----------9--7-----|------------------------|
|--------------------------------9--|--8--7------7--9\8/9----|
|-----------------------------------|--------10--------------|


 C5				      C5	       C5  D5

|--18p15-----------------------------|---------------------------|
|---------16\13----------------------|---------------------------|
|----------------12------------------|-----------------15----15--|
|--------------------13--12----------|------13--15/17------------|
|----------------------------15--13--|--15-----------------------|
|------------------------------------|---------------------------|


C5					    C5
   tremolo picking......................................................|
|------------------------------------------|------------------------------------|
|--13-13-13-15-15-15-16-16-16-16b18-18-18--|--------------------13-13-13-15/17--|
|------------------------------------------|--12-12-12-14-14-14-----------------|
|------------------------------------------|------------------------------------|
|------------------------------------------|------------------------------------|
|------------------------------------------|------------------------------------|


|-17p12-----17p12------17p12------17p12----|-16p12----16p12------16p12----16p12----|
|-------12---------12---------12--------12-|-------12--------12--------12-------12-|
|------------------------------------------|---------------------------------------|
|------------------------------------------|---------------------------------------|
|------------------------------------------|---------------------------------------|
|------------------------------------------|---------------------------------------|


|-17p12-----17p12------16p12------16p12----|-17p12----17p12------16p12----16p12----|
|-------12---------12---------12--------12-|-------12--------12--------12-------12-|
|------------------------------------------|---------------------------------------|
|------------------------------------------|---------------------------------------|
|------------------------------------------|---------------------------------------|
|------------------------------------------|---------------------------------------|


  C5				C5			C5 D5

|-----------------------------|----------------------------------------|
|--15b17---15b17-~----12------|--12--15--12h15--15b17-~----15--12------|
|-------------------------14--|------------------------------------14--|
|-----------------------------|----------------------------------------|
|-----------------------------|----------------------------------------|
|-----------------------------|----------------------------------------|


  C5					   C5

|------15b17-~----15--12----------------|----------------------------|
|--12-----------------------15--12------|----------------------------|
|-----------------------------------14--|--12------12--14b16-~----\--|
|---------------------------------------|------14--------------------|
|---------------------------------------|----------------------------|
|---------------------------------------|----------------------------|

|-----------------------------|----------------------------|
|-----------------------------|----------------------------|
|-----------------------------|--------7---------7--7------|
|--9-------------------7------|--9--7-----10--9--------10--|
|-----7--7--10--9---------10--|----------------------------|
|------------------10---------|----------------------------|
  PM.....................................................|


|--------------------7------|----------------17----\--|
|-----------7---------------|--17--15--14-------------|
|--9--7--7-----9--7-----10--|-------------------------|
|---------------------------|-------------------------|
|---------------------------|-------------------------|
|---------------------------|-------------------------|
  PM......................|


|-------------------------------|----------------12--------------|
|-----------------13------------|--15----------------------------|
|--/12----12--12------12----12--|------12----12------12--12--12--|
|-------------------------------|--------------------------------|
|-------------------------------|--------------------------------|
|-------------------------------|--------------------------------|


|------------------------------|----------------15b17---r15-|
|----------------13------------|--15------------------------|
|--12----12--12------12----12--|------12----12--------------|
|------------------------------|----------------------------|
|------------------------------|----------------------------|
|------------------------------|----------------------------|
  triplets (next 3 bars)
 
|--15-12----12--------------------------|--------------------------------12--|
|--------15----15-12-15-12----12----12--|--15-12-----------------------------|
|--------------------------14----14-----|--------14-12----12-14-12-----------|
|---------------------------------------|--------------14----------14-14-----|
|---------------------------------------|------------------------------------|
|---------------------------------------|------------------------------------|


|--15-12--------------------------------|-----------------------|
|--------15-12----12-15-12--------------|-----------------------|
|--------------14----------14-12----12--|--14b16--14--12--------|
|--------------------------------14-----|-----------------14-~-~|
|---------------------------------------|-----------------------|
|---------------------------------------|-----------------------|


|-------------------------------|----------------12--------------|
|-----------------13------------|--15----------------------------|
|--/12----12--12------12----12--|------12----12------12--12--12--|
|-------------------------------|--------------------------------|
|-------------------------------|--------------------------------|
|-------------------------------|--------------------------------|


|------------------------------|----------------15b17--r15--|
|----------------13------------|--15------------------------|
|--12----12--12------12----12--|------12----12--------------|
|------------------------------|----------------------------|
|------------------------------|----------------------------|
|------------------------------|----------------------------|
  triplets (next 3 1/2 bars)

|--15-12----12----------------------14--|--17-15-14-15-14----14-----------------|
|--------15----15-12-15-12----12--------|-----------------17----17-15-17-15-14--|
|--------------------------14----14-----|---------------------------------------|
|---------------------------------------|---------------------------------------|
|---------------------------------------|---------------------------------------|
|---------------------------------------|---------------------------------------|


|-19-17-15----------21-19-17----------|-22-21-19-----------22b24--22b24-|--22b24-~---|
|----------19-17-16----------21-19-17-|----------22-21-19---------------|------------|
|-------------------------------------|---------------------------------|------------|
|-------------------------------------|---------------------------------|------------|
|-------------------------------------|---------------------------------|------------|
|-------------------------------------|---------------------------------|------------|





Comments


Popular Metallica tabs & chords
Enter Sandman 5 Bass Tabs
Aint My Bitch Chords
Blackened Chords
Enter Sandman Chords
And Justice For All Medley Tabs
Jump In The Fire 3 Tabs
Jump In The Fire Intro Tabs
Sucking My Love 1 Tabs
The Call Of The Ktulu 2 Tabs
Turn The Page 1 Tabs


Song lyrics



↑ Back to top | Tablatures and chords are parodies/interpretations of the original songs. You may use it for private study, scholarship, research or language learning purposes only
© 2014 AZChords.com Contact us | Privacy policy | DMCA | Add/correct tabs | Request tabs | Top 50 tabs