>
 >
Disposable Heroes 3

Disposable Heroes 3 Bass Tabs

Metallica - Disposable Heroes 3 chords, tabs, tablatures, lyrics

Guitar lessons | Add/correct | Request | Top 50 tabs Artists:  A B C D E F G H I J K L M N O P Q R S T U V W X Y Z 0-9

Disposable Heroes 3 Bass Tabs – Metallica

CD, Sheet music, Poster

Do you like Disposable Heroes 3? Share with your friends now
Bass TabsBass Tabs v2Bass Tabs v3Drum TabsTabsTabs v2Tabs v3Tabs v4Tabs v5
-------------------------------------------------------------------------------
                             Disposable Heroes - Metallica
-------------------------------------------------------------------------------
Tuning: standard, EADG

well i believe this the last master bass tab for MoP and i believe no one has made a 
master for diposable yet so here u go and heres the link:


|------------------------|------------------------|
|*-----------------------|------------------------|
|*-----------------------|------------------------|
|0-0-0-0-0-0-2---3---2---|0-0-0-0-0-0-3---5---2---|

|------------------------|------------------------|
|------------------------|-----------------------*|
|------------------------|------------------7----*| x3
|0-0-0-0-0-0-2---3---2---|0-0-0-0-0-0-0-0-0-------|

|------------------------|------------------------|
|------------------------|------------------------|
|------------------------|------------------------|
|0-0-0-0-0-0-2---3---2---|0-0-0-0-0-0-3---5---2---|

|------------------------|--------------------------|-----|
|------------------------|--------------------------|-----|
|------------------------|------------------7-7---7\|\\\--|
|0-0-0-0-0-0-2---3---2---|0-0-0-0-0-0-0-0-0-----0-0-|---0-|

|-99-9------------|----------------|
|-----------------|*--------------*|
|------7\---------|*--------------*| x2
|---------0-------|-0-0------------|

|-------------------|
|-------------------|
|---------777---7---|
|-0-0---0-----0---0-|

|-----------------|
|-----------------|
|-----------------| x3
|-0-000-0-0-0-0000|

|------------------|
|------------------|
|--------------7-7-|
|-0-000-0-0-0-0-0--|

|-----------------|
|-----------------|
|-----------------| x3
|-0-000-0-0-0-0000|

|------------------|
|------------------|
|----------------7\|
|-0-000-0-0-0-000--|

|-----------------|
|-----------------|
|-----------------| x3
|-0-000-0-0-0-0000|

|------------------|
|------------------|
|------------X-7-7-|
|-0-000-0-0-0-0-0--|

|-----------------|
|-----------------|
|-----------------| x3
|-0-000-0-0-0-0000|

|------------------|
|------------------|
|---------------7--|
|-0-000-0-0-0-00---|

|-----------------|
|-----------------|
|-----------------| x3
|-0-000-0-0-0-0000|

|------------------|
|------------------|
|---------------7--|
|-0-000-0-0-0-00-0-|

|-----------------|
|-----------------|
|-----------------| x3
|-0-000-0-0-0-0000|

|------------------|
|------------------|
|--------------7-7-|
|-0-000-0-0-0-0-0--|

||--------------------|       |-----|-----|
||:-------------------|       |-----|-----|
||-4-4444444-2h444444-| x6    |0----|-----|
||--------------------|       |-----|3----|

|-----------------|
|-----------------|
|-----------------| x3
|-0-000-0-0-0-0000|

|------------------|
|------------------|
|--------------7-7-|
|-0-000-0-0-0-0-0--|

|-----------------|
|-----------------|
|-----------------| x3
|-0-000-0-0-0-0000|

|-------------------|
|-------------------|
|--------------77-7-|
|-0-000-0-0-0-0--0--|

|----------------|----------------|----------------|----------------|
|----------------|----------------|----------------|----------------|
|----------------|----------------|----------------|--------------4-|
|0-000-0-0-0-0000|0-000-0-0-0-0000|3-333-3-3-3-3333|2-222-2-2-2-22-2|

|----------------|----------------|----------------|-----------------|
|----------------|----------------|----------------|-----------------|
|----------------|----------------|----------------|-------------9-9-|
|0-000-0-0-0-0000|0-000-0-0-0-0000|3-333-3-3-3-3333|7-777-7-7-7-7-7--|

|----------------|----------------|----------------|----------------|
|----------------|----------------|----------------|----------------|
|----------------|----------------|----------------|--------------4-|
|0-000-0-0-0-0000|0-000-0-0-0-0000|3-333-3-3-3-3333|2-222-2-2-2-22-2|

|----------------|----------------|----------------|----------------|
|----------------|----------------|----------------|----------------|
|----------------|----------------|----------------|--------------7\|
|0-000-0-0-0-0000|0-000-0-0-0-0000|0-000-0-0-0-0000|0-000-0-0-0-00--|

|-------------------|-------------------|---------------|----------------|
|-------------------|-------------------|---------------|----------------|
|-4-4444444-2h444444|-4-4444444-2h444444|-4-4444444-2h44|-2-2222222-2h3p2|x4
|-------------------|-------------------|---------------|----------------|

|-------------------|-------------------|--------------|-----------------|
|-------------------|-------------------|--------------|-----------------|
|-2-2222222-0h222222|-2-2222222-0h222222|2-2222222-0h22|0-0000000-00000h2|x2
|-------------------|-------------------|--------------|-----------------|

|----------------|----------------|--------------------------|
|----------------|----------------|--------------------------|
|2--1--2-3---2---|7\--7\----------|--------------------------|
|----------------|--00--0-0-0-0-3-|-3-3-3-3-3-6--2-2-2-2-2-2-|

|----------------|---------|-------------------|
|----------------|---------|-------------------|
|----------------|---------|-------------7-6-5-|
|-5--1-1-1-1-1-1-|-1-1-3-3-|-0-000-0-0-0-------|

|--------------------------|
|--------------------------|
|--------------------------|
|-3-3-3-3-3-6--2-2-2-2-2-2-|

|----------------|---------|-------------------|
|----------------|---------|-------------------|
|----------------|---------|-5h7-7-7-7-7-7-6-5-|
|-5--1-1-1-1-1-1-|-1-1-3-3-|-------------------|

|--------------------------|
|--------------------------|
|--------------------------|
|-3-3-3-3-3-6--2-2-2-2-2-2-|

|----------------|---------|-------------------|
|----------------|---------|-------------------|
|----------------|---------|-------------7-6-5-| x2
|-5--1-1-1-1-1-1-|-1-1-3-3-|-0-000-0-0-0-------|

|----------------|----------------|----------------|----------------|
|----------------|----------------|----------------|----------------|
|----------------|----------------|----------------|--------------4-|
|0-000-0-0-0-0000|0-000-0-0-0-0000|3-333-3-3-3-3333|2-222-2-2-2-22-2|

|----------------|----------------|----------------|-----------------|
|----------------|----------------|----------------|-----------------|
|----------------|----------------|----------------|-------------9-9-|
|0-000-0-0-0-0000|0-000-0-0-0-0000|3-333-3-3-3-3333|7-777-7-7-7-7-7--|

|----------------|----------------|----------------|----------------|
|----------------|----------------|----------------|----------------|
|----------------|----------------|----------------|--------------4-|
|0-000-0-0-0-0000|0-000-0-0-0-0000|3-333-3-3-3-3333|2-222-2-2-2-22-2|

|----------------|----------------|----------------|----------------|
|----------------|----------------|----------------|----------------|
|----------------|----------------|----------------|--------------7\|
|0-000-0-0-0-0000|0-000-0-0-0-0000|0-000-0-0-0-0000|0-000-0-0-0-00--|

|-------------------|-------------------|---------------|----------------|
|-------------------|-------------------|---------------|----------------|
|-4-4444444-2h444444|-4-4444444-2h444444|-4-4444444-2h44|-2-2222222-2h3p2|x4
|-------------------|-------------------|---------------|----------------|

|-------------------|-------------------|--------------|-----------------|
|-------------------|-------------------|--------------|-----------------|
|-2-2222222-0h222222|-2-2222222-0h222222|2-2222222-0h22|0-0000000-00000h2|x2
|-------------------|-------------------|--------------|-----------------|

|----------------|----------------|--------------------------|
|----------------|----------------|--------------------------|
|2--1--2-3---2---|7\--7\----------|--------------------------|
|----------------|--00--0-0-0-0-3-|-3-3-3-3-3-6--2-2-2-2-2-2-|

|----------------|---------|-------------------|
|----------------|---------|-------------------|
|----------------|---------|-------------7-6-5-|
|-5--1-1-1-1-1-1-|-1-1-3-3-|-0-000-0-0-0-------|

|--------------------------|
|--------------------------|
|--------------------------|
|-3-3-3-3-3-6--2-2-2-2-2-2-|

|----------------|---------|---------------|
|----------------|---------|---------------|
|----------------|---------|-5h7-7-7-7-6-5-|
|-5--1-1-1-1-1-1-|-1-1-3-3-|---------------|

|--------------------------|
|--------------------------|
|--------------------------|
|-3-3-3-3-3-6--2-2-2-2-2-2-|

|----------------|---------|-------------------|
|----------------|---------|-------------------|
|----------------|---------|------------/7-6-5-|
|-5--1-1-1-1-1-1-|-1-1-3-3-|-0-000-0-0-0-------|

|--------------------------|
|--------------------------|
|--------------------------|
|-3-3-3-3-3-6--2-2-2-2-2-2-|

|----------------|---------|---------------------|
|----------------|---------|---------------------|
|----------------|---------|------------/7-6-5---|
|-5--1-1-1-1-1-1-|-1-1-3-3-|-0-000-0-0-0-------3-|

|-----------|-------|-----|
|-----------|-------|-----|
|------7----|---7---|---7-| x3
|0---0---0--|-0---0-|-0---|

|-----------|-------|---------|
|-----------|-------|---------|
|------7----|---7---|--/7-6-5-|
|0---0---0--|-0---0-|-0-------|

|-----------|-------|-----|
|-----------|-------|-----|
|------7----|---7---|---7-| x3
|0---0---0--|-0---0-|-0---|

|-----------|-------|----------|
|-----------|-------|----------|
|------7----|---7---|--7-7-7-7-|
|0---0---0--|-0---0-|-0--------|

|------------|-----------|--------|
|------------|-----------|--------|
|------7-----|-----7-----|------7-| x3
|0-0-0---0-0-|-0-0---0-0-|-0-0-0--|

|------------|-----------|-----------|
|------------|-----------|-----------|
|------7-----|-----7-----|----/7-6-5-|
|0-0-0---0-0-|-0-0---0-0-|-0-0-------|

|------------|-----------|--------|
|------------|-----------|--------|
|------7-----|-----7-----|------7-| x3
|0-0-0---0-0-|-0-0---0-0-|-0-0-0--|

|------------|-----------|-----------------|
|------------|-----------|-----------------|
|------7-----|-----7-----|-----7-7-7-7-7-7-|
|0-0-0---0-0-|-0-0---0-0-|-0-0-------------|

|------------|-----------|------------|
|------------|-----------|------------|
|------7-----|-----7-----|------7-----| x4
|0-0-0---0-0-|-0-0---0-0-|-0-0-0--0--0|

|----------------|----------------|----------------|----------------|
|----------------|----------------|----------------|----------------|
|3---3-3-3---3-3-|3---3-3-3-5-----|3---3-3-3---3-3-|-3---3-2-2-1-0--|
|----------------|----------------|----------------|----------------|

|------------|-----------|------------|
|------------|-----------|------------|
|------7-----|-----7-----|------7-----| x2
|0-0-0---0-0-|-0-0---0-0-|-0-0-0--0--0|

|----------------|----------------|----------------|----------------|
|----------------|----------------|----------------|----------------|
|3---3-3-3---3-3-|3---3-3-3-5-----|3---3-3-3---3-3-|-3---3-2-2-1-0--|
|----------------|----------------|----------------|----------------|

|------------|-----------|------------|
|------------|-----------|------------|
|------7-----|-----7-----|------7-----| x2
|0-0-0---0-0-|-0-0---0-0-|-0-0-0--0--0|

|-----------------|
|-----------------|
|-----------------| x3
|-8-8-8-8-8-8-8-8-|

|-----------------|
|-----------------|
|-----------------|
|-8\\\\\\\\\\\\\5-|

|------------|-----------|------------|
|------------|-----------|------------|
|------7-----|-----7-----|------7-----| x2
|0-0-0---0-0-|-0-0---0-0-|-0-0-0--0--0|

|-----------------|
|-----------------|
|-----------------| x3
|-8-8-8-8-8-8-8-8-|

|-----------------|
|-----------------|
|-----------------|
|-8\\\\\\\\\\\\\5-|

|------------|-----------|------------|
|------------|-----------|------------|
|------7-----|-----7-----|------7-----|
|0-0-0---0-0-|-0-0---0-0-|-0-0-0--0--0|

|------------|-----------|-------------|
|------------|-----------|-------------|
|------7-----|-----7-----|------/7-6-5-|
|0-0-0---0-0-|-0-0---0-0-|-0-0-0-------|

|-----------|-------|-----|
|-----------|-------|-----|
|------7----|---7---|---7-| x3
|0---0---0--|-0---0-|-0---|

|-----------|-------|----------|
|-----------|-------|----------|
|------7----|---7---|--/77-6-5-|
|0---0---0--|-0---0-|-0--------|

|-----------|-------|-----|
|-----------|-------|-----|
|------7----|---7---|---7-| x4
|0---0---0--|-0---0-|-0---|

|-------------|
|-------------|
|-------7---7-|
|-0-000---0---|

|-----------------|
|-----------------|
|-----------------|
|-3-3-3-3-3-3-3-3-|

||--------------------|       |-----|-----|
||:-------------------|       |-----|-----|
||-4-4444444-2h444444-| x6    |0----|-----|
||--------------------|       |-----|3----|

|----------------|----------------|----------------|----------------|
|----------------|----------------|----------------|----------------|
|----------------|----------------|----------------|--------------4-|
|0-000-0-0-0-0000|0-000-0-0-0-0000|3-333-3-3-3-3333|2-222-2-2-2-22-2|

|----------------|----------------|----------------|-----------------|
|----------------|----------------|----------------|-----------------|
|----------------|----------------|----------------|-------------9-9-|
|0-000-0-0-0-0000|0-000-0-0-0-0000|3-333-3-3-3-3333|7-777-7-7-7-7-7--|

|----------------|----------------|----------------|----------------|
|----------------|----------------|----------------|----------------|
|----------------|----------------|----------------|--------------4-|
|0-000-0-0-0-0000|0-000-0-0-0-0000|3-333-3-3-3-3333|2-222-2-2-2-22-2|

|----------------|----------------|----------------|----------------|
|----------------|----------------|----------------|----------------|
|----------------|----------------|----------------|--------------7\|
|0-000-0-0-0-0000|0-000-0-0-0-0000|0-000-0-0-0-0000|0-000-0-0-0-00--|

|-------------------|-------------------|---------------|----------------|
|-------------------|-------------------|---------------|----------------|
|-4-4444444-2h444444|-4-4444444-2h444444|-4-4444444-2h44|-2-2222222-2h3p2|x4
|-------------------|-------------------|---------------|----------------|

|-------------------|-------------------|--------------|-----------------|
|-------------------|-------------------|--------------|-----------------|
|-2-2222222-0h222222|-2-2222222-0h222222|2-2222222-0h22|0-0000000-00000h2|x2
|-------------------|-------------------|--------------|-----------------|

|----------------|----------------|
|----------------|----------------|
|2--1--2-3---2---|4--3--4-5---6---|
|----------------|----------------|

|----------------|--------------------------|
|----------------|--------------------------|
|7\--7\----------|--------------------------|
|--00--0-0-0-0-3-|-3-3-3-3-3-6--2-2-2-2-2-2-|

|----------------|---------|--------------|
|----------------|---------|--------------|
|----------------|---------|--7-7-7-7-6-5-|
|-5--1-1-1-1-1-1-|-1-1-3-3-|-0------------|

|--------------------------|
|--------------------------|
|--------------------------|
|-3-3-3-3-3-6--2-2-2-2-2-2-|

|----------------|---------|-------------------|
|----------------|---------|-------------------|
|----------------|---------|-------------7-6-5-|
|-5--1-1-1-1-1-1-|-1-1-3-3-|-0-000-0-0-0-------|

|--------------------------|
|--------------------------|
|--------------------------|
|-3-3-3-3-3-6--2-2-2-2-2-2-|

|----------------|---------|-------------------|
|----------------|---------|-------------------|
|----------------|---------|------------/7-6-5-|
|-5--1-1-1-1-1-1-|-1-1-3-3-|-0-000-0-0-0-------|

|--------------------------|
|--------------------------|
|--------------------------|
|-3-3-3-3-3-6--2-2-2-2-2-2-|

|----------------|---------|------------------|
|----------------|---------|------------------|
|----------------|---------|-------/7-7-7-6-5-| x4
|-5--1-1-1-1-1-1-|-1-1-3-3-|-0-000------------|

|--------------------------|
|--------------------------|
|--------------------------|
|-3-3-3-3-3-6--2-2-2-2-2-2-|

|----------------|---------|-----------------|
|----------------|---------|-----------------|
|----------------|---------|-----------------|
|-5--1-1-1-1-1-1-|-1-1-3-3-|-0-000-0-0-0-000-|

|-------------------|-------------------|---------------|-----------------|
|-------------------|-------------------|---------------|-----------------|
|-4-4444444-2h444444|-4-4444444-2h444444|-4-4444444-2h44|0-10-9-0-9-7-----|
|-------------------|-------------------|---------------|------------10-9-|

|-------------------|-------------------|---------------|-----------------|
|-------------------|-------------------|---------------|-----------------|
|-4-4444444-2h444444|-4-4444444-2h444444|-4-4444444-2h44|0-10-9-0-9-7-----|
|-------------------|-------------------|---------------|------------10-9-|

|-------------------|-------------------|---------------|-----------------|
|-------------------|-------------------|---------------|-----------------|
|-5-5555555-3h555555|-5-5555555-3h555555|-5-5555555-3h55|0-10-9-0-9-7-----|
|-------------------|-------------------|---------------|------------10-9-|

|-------------------|-------------------|---------------|
|-------------------|-------------------|---------------|
|-4-4444444-2h444444|-4-4444444-2h444444|-4-4444444-2h44|
|-------------------|-------------------|---------------|

|-----|-----|
|-----|-----|
|0----|-----|
|-----|3----|

|-------6-------|
|----6-----6----|
|-4-----------4-|
|---------------|

|-------------------|-------------------|---------------|
|-------------------|-------------------|---------------|
|-4-4444444-2h444444|-4-4444444-2h444444|-4-4444444-2h44|
|-------------------|-------------------|---------------|

|-----|-----|
|-----|-----|
|0----|-----|
|-----|3----|

|-6//-|
|-6//-|
|-4//-|
|-----|

well there u have it this one took like 4 hours to tab out its not perfect but close 
(fill wise) and btw the "i was born for dying" that A7 to E0 is extremelly trickie so drop 
a comment below and ill update thanks, and again fun song but a BITCH to tab!!!

MetallicaDMRTL

                        \m/Metallica\m/





Comments


Popular Metallica tabs & chords
Bass Reef Bass Tabs
Carol Of The Bells Bass Tabs
Crash Course In Brain Surgery Bass Tabs
Dyers Eve 4 Bass Tabs
Battery Tabs
For Whom The Bell Tolls 7 Tabs
For Whom The Bells Tolls 1 Tabs
No Leaf Clover Intro Tabs
Sabbra Cadabra National Acrobat Tabs
Whiskey In The Jar Intro Tabs


Song lyrics



↑ Back to top | Tablatures and chords are parodies/interpretations of the original songs. You may use it for private study, scholarship, research or language learning purposes only
© 2014 AZChords.com Contact us | Privacy policy | DMCA | Add/correct tabs | Request tabs | Top 50 tabs