>
 >
Disposable Heroes 2

Disposable Heroes 2 Bass Tabs

Metallica - Disposable Heroes 2 chords, tabs, tablatures, lyrics

Guitar lessons | Add/correct | Request | Top 50 tabs Artists:  A B C D E F G H I J K L M N O P Q R S T U V W X Y Z 0-9

Disposable Heroes 2 Bass Tabs – Metallica

CD, Sheet music, Poster

Do you like Disposable Heroes 2? Share with your friends now
Bass TabsBass Tabs v2Bass Tabs v3Drum TabsTabsTabs v2Tabs v3Tabs v4Tabs v5
================================================================================
                               M E T A L L I C A

                                       -

                       D I S P O S A B L E   H E R O E S
================================================================================


                                MASTER OF PUPPETS
               (c) Elektra/Music For Nations/Vertigo Records (1986)


                                 Standard Tuning
                                     E A D G

                                 Tempo = 102 BPM
                            Time Signature = 3/4 (Varies)



                          -----------------------------

                                 PADDY MCMULLAN

                         Version 1.0 [17th October 2012]

                                   Date Tabbed
                                17th October 2012
                             -----------------------

                             Tablature Symbols Used:


 (/)       -  Legato Slide (Blank space indicates length of slide)
 \         -  Slide Down to/Down From
 /         -  Slide Up to/Up From
 ( )       -  Ghost Note/Tied Note/Implied Note
 REST      -  Rest and sustain rest for duration of blank space
 |_3_|     -  Triplet Notes
 5h7       -  Hammer-on
 7p5       -  Pull-off
 *         -  Staccato Notes (Bring the indicated note(s) to an abrupt end)
 <5>       -  Natural Harmonic



================================================================================
Intro:                                                    [ Time 00:00 - 00:33 ]
================================================================================


| |------------------------|-------------------------|
|3|------------------------|-------------------------|
|/|------------------------|-------------------------|
|4|--0-0-0-0-0-0-2--3--2- /|--0-0-0-0-0-0-3--5 \ 2- /|


|------------------------|-------------------------| |
|------------------------|-------------------------|*|
|------------------------|--------------------7-- \|*| x 3
|--0-0-0-0-0-0-2--3--2- /|--0-0-0-0-0-0-0-0-0------| |


||------------------------|-------------------------|------------------------|
||------------------------|-------------------------|------------------------|
||------------------------|-------------------------|------------------------|
||--0-0-0-0-0-0-2--3--2- /|--0-0-0-0-0-0-3--5 \ 2- /|--0-0-0-0-0-0-2--3--2- /|


|------------------------|---------------|---------------||
|------------------------|---------------|---------------||
|--------------7---7-----|---------------|---------------||
|--0-0-0-0-0-0---0---0---|--(0)----------|--(0)----------||



================================================================================
Part 1:                                                   [ Time 00:33 - 01:16 ]
================================================================================


||---------------------|----------------------------------|
||-----              --|--          ----14-14-14----14\ --|
||-----              --|--          --0-------------14\ --|
||--0------------------|----------------------------------|

|-------------------------------|---------------------------------|
|----- ----------------     ----|-----     -----------------------|
|--*-- -------------*--     ----|--*--     ----*--------7----7\ --|
|--0-----x----x--0--0--------0--|--0--------0--0--x--0--0---------|

|------------------------------------------------------|
|------------------------------------------------------|
|------------------------------------------------------|
|--0--0-0-0--0--0--0--0-0-0--0--0-0-0--0--0--0--0-0-0--|

|----------------------------------------------------|
|----------------------------------------------------|
|-----------------------------------------7--7----7--|
|--0--0-0-0--0--0--0--0-0-0--0--0-0-0--0--------0----|

|------------------------------------------------------|
|------------------------------------------------------|
|------------------------------------------------------|
|--0--0-0-0--0--0--0--0-0-0--0--0-0-0--0--0--0--0-0-0--|

|------------------------------------------------------|
|------------------------------------------------------|
|------------------------------------------------------|
|--0--0-0-0--0--0--0--0-0-0--0--0-0-0--0--0--0--12 \ --|

|------------------------------------------------------|
|------------------------------------------------------|
|------------------------------------------------------|
|--0--0-0-0--0--0--0--0-0-0--0--0-0-0--0--0--0--0-0-0--|

|------------------------------------------------------|
|------------------------------------------------------|
|---------------------------------------------7-----7--|
|--0--0-0-0--0--0--0--0-0-0--0--0-0-0--0--<5>----0-----|

|------------------------------------------------------|
|------------------------------------------------------|
|------------------------------------------------------|
|--0--0-0-0--0--0--0--0-0-0--0--0-0-0--0--0--0--0-0-0--|

|---------------------------------------------------|
|---------------------------------------------------|
|----------------------------------------------7----|
|--0--0-0-0--0--0--0--0-0-0--0--0-0-0--0--0--0------|

|------------------------------------------------------|
|------------------------------------------------------|
|------------------------------------------------------|
|--0--0-0-0--0--0--0--0-0-0--0--0-0-0--0--0--0--0-0-0--|

|---------------------------------------------------|
|---------------------------------------------------|
|----------------------------------------------7----|
|--0--0-0-0--0--0--0--0-0-0--0--0-0-0--0--0--0------|

|------------------------------------------------------|
|------------------------------------------------------|
|------------------------------------------------------|
|--0--0-0-0--0--0--0--0-0-0--0--0-0-0--0--0--0--0-0-0--|

|------------------------------------------------||
|------------------------------------------------||
|-------------------------------------------7----||
|--0--0-0-0--0--0--0--0-0-0--0--0-0-0--0--0---0--||



================================================================================
Part 2:                                                   [ Time 01:16 - 01:27 ]
================================================================================


||--------------------------------------------------------|
||--------------------------------------------------------|
||--4--4--4--4--5p4-4--4--4-4--4--4-4-4--4--5p4-4--4--4-4-|
||--------------------------------------------------------|

|-------------------------------------------------------|
|-------------------------------------------------------|
|--4--4--4-4-4--5p4-4--4--4-4-4--4--4-4-4--4--4--4--4-4-|
|-------------------------------------------------------|

|-------------------------------------------------------|--------------------||
|-------------------------------------------------------|-----     -----   --||
|--4--4--4--4--5p4-4--4--4-4-4--4--4-4-4--5p4-4--4--4-4-|--0--     --*--   --||
|-------------------------------------------------------|------------3-------||



================================================================================
Part 3:                                                   [ Time 01:27 - 01:59 ]
================================================================================


||------------------------------------------------------|
||------------------------------------------------------|
||------------------------------------------------------|
||--0--0-0-0--0--0--0--0-0-0--0--0-0-0--0--0--0--0-0-0--|

|---------------------------------------------------|
|---------------------------------------------------|
|------------------------------------------7-----7--|
|--0--0-0-0--0--0--0--0-0-0--0--0-0--0--0-----0-----|

|------------------------------------------------------|
|------------------------------------------------------|
|------------------------------------------------------|
|--0--0-0-0--0--0--0--0-0-0--0--0-0-0--0--0--0--0-0-0--|

|---------------------------------------------------|
|---------------------------------------------------|
|------------------------------------------7-----7--|
|--0--0-0-0--0--0--0--0-0-0--0--0-0--0--0-----0-----|

|------------------------------------------------------|
|------------------------------------------------------|
|------------------------------------------------------|
|--0--0-0-0--0--0--0--0-0-0--0--0-0-0--0--0--0--0-0-0--|

|-------------------------------------------------------|
|-------------------------------------------------------|
|-------------------------------------------------5-----|
|--3--3-3-3--3--3--3--3-3-3-3-2--2-2--2--2--3--2-----2--|

|------------------------------------------------------|
|------------------------------------------------------|
|------------------------------------------------------|
|--0--0-0-0--0--0--0--0-0-0--0--0-0-0--0--0--0--0-0-0--|

|---------------------------------------------------------|
|---------------------------------------------------------|
|---------------------------------------------7--7-----7--|
|--3--3-3--3--3--3--3-3-3-3-(5/7)--7-7--7--7--------0-----|

|------------------------------------------------------|
|------------------------------------------------------|
|------------------------------------------------------|
|--0--0-0-0--0--0--0--0-0-0--0--0-0-0--0--0--0--0-0-0--|

|-------------------------------------------------------|
|-------------------------------------------------------|
|-------------------------------------------------5-----|
|--3--3-3-3--3--3--3--3-3-3--2--2-2--2--2--3--2------2--|

|------------------------------------------------------|
|------------------------------------------------------|
|------------------------------------------------------|
|--0--0-0-0--0--0--0--0-0-0--0--0-0-0--0--0--0--0-0-0--|

|-----------------------------------------------------||
|-----------------------------------------------------||
|-----------------------------------------------12 \--||
|--0--0-0-0--0--0--0--0-0-0--0--0-0-0--0--0--0--------||



Bodies fill the fields I see, hungry hero's end
No one to play soldier now, no one to pretend
Running blind through killing fields, bred to kill them all
Victim of what said should be
A servant 'til I fall



================================================================================
Part 4:                                                   [ Time 01:59 - 02:30 ]
================================================================================


| |---------------------------------------------------------|
|4|---------------------------------------------------------|
|/|--4--4--4-4--4--5p4-4--4--4-4-4--4-4-4--4--5p4-4--4--4-4-|
|4|---------------------------------------------------------|

| |-------------------------------------------|
|3|-------------------------------------------|
|/|--4--4--4-4-4--5p4-4\2--2-2-2--2-2-3p2-2 /-|
|4|-------------------------------------------|

| |---------------------------------------------------------|
|4|---------------------------------------------------------|
|/|--4--4--4-4--4--5p4-4--4--4-4-4--4-4-4--4--5p4-4--4--4-4-|
|4|---------------------------------------------------------|

| |-------------------------------------------|
|3|-------------------------------------------|
|/|--4--4--4-4-4--5p4-4\2--2-2-2--2-2-3p2-2 /-|
|4|-------------------------------------------|

| |---------------------------------------------------------|
|4|---------------------------------------------------------|
|/|--4--4--4-4--4--5p4-4--4--4-4-4--4-4-4--4--5p4-4--4--4-4-|
|4|---------------------------------------------------------|

| |-------------------------------------------|
|3|-------------------------------------------|
|/|--4--4--4-4-4--5p4-4\2--2-2-2--2-2-3p2-2 /-|
|4|-------------------------------------------|

| |---------------------------------------------------------|
|4|---------------------------------------------------------|
|/|--4--4--4-4--4--5p4-4--4--4-4-4--4-4-4--4--5p4-4--4--4-4-|
|4|---------------------------------------------------------|

| |------------------------------------------|
|3|------------------------------------------|
|/|--4--4--4-4-4--5p4-4\2--2-2-2--2-2-3p2-2--|
|4|------------------------------------------|

| |--------------------------------------------------------|
|4|--------------------------------------------------------|
|/|--2--2--2-2-2--3p2-2--2--2-2-2--2-2-2--2--3p2-2--2--2-2-|
|4|--------------------------------------------------------|

| |----------------------------------------|
|3|----------------------------------------|
|/|--2--2--2-2-2--3--2--0--0-0-0--0--1--0--|
|4|----------------------------------------|


| |--------------------------------------------------------|
|4|--------------------------------------------------------|
|/|--2--2--2-2-2--3p2-2--2--2-2-2--2-2-2--2--3p2-2--2--2-2-|
|4|--------------------------------------------------------|

| |------------------------------------------|
|3|------------------------------------------|
|/|--2--2--2-2-2-3p2-2--0--0-0-0--0-0-1p0-0--|
|4|------------------------------------------|

     |___3___|
| |----------------------------------------------------||
|4|----------------------------------------------------||
|/|--2---1---2---3----2/ ------------------------------||
|4|------------------------0--12\ -0--0--10\ -0--0--3--||



Soldier boy, made of clay
Now an empty shell
Twenty-one, only son
But he served us well
Bred to kill, not to care
Do just as we say
Finished here, greeting death
He's yours to take away



================================================================================
Part 5:                                                   [ Time 02:30 - 02:51 ]
================================================================================


||-----------------------------------|------------------------------------|
||-----------------------------------|------------------------------------|
||-----------------------------------|----------------------------7-5-----|
||--(3)--3-3-0-3-0-2-2-2-2-2-2-5\0-1-|--(1)--1-1-1-3-1/ -0--0-0-0-----7\3-|

|----------------------------------|-----------------------------------|
|----------------------------------|-----------------------------------|
|----------------------------------|-------------------5-7-7-7-7-5-----|
|--(3)--3-3-0-3-0-2--2-2-2-2-5\0-1-|--(1)--1-1-1-3-1/ -------------7\3-|

|-----------------------------------|------------------------------------|
|-----------------------------------|------------------------------------|
|-----------------------------------|----------------------------7-5-----|
|--(3)--3-3-0-3-0-2-2-2-2-2-2-5\0-1-|--(1)--1-1-1-3-1/ -0--0-0-0-----7\3-|

|-----------------------------------| |---------------------------------------||
|-----------------------------------|5|------------------------------------  -||
|-----------------------------------|/|----------------------------7-5---*-  -||
|--(3)--3-3-0-3-0-2-2-2-2-2-2-5\0-1-|4|--(1)--1-1-1-3-1/ -0--0-0-0-----7-0----||



================================================================================
Part 6: Repeat Part 3                                     [ Time 02:51 - 03:13 ]
================================================================================


Replace the final bar of Part 3 with the following:


|-------------------------------------------------||
|-------------------------------------------------||
|-------------------------------------------------||
|--0--0-0-0--0--0--0--0-0-0--0--0-0-0--0-12\0-9\0-||



Barking of machine gun fire
Does nothing to me now
Sounding of the clock that ticks
Get used to it somehow
More a man, more stripes you wear
Glory seeker trends
Bodies fill the fields I see
The slaughter never ends



================================================================================
Part 7: Repeat Part 4                                     [ Time 03:13 - 03:44 ]
================================================================================

================================================================================
Part 8:                                                   [ Time 03:44 - 04:06 ]
================================================================================


||----------------------------------|------------------------------------|
||----------------------------------|------------------------------------|
||----------------------------------|----------------------------7-5-----|
||--(3)--3-3-0-3-0-2--2-2-2-2-5\0-1-|--(1)--1-1-1-3-1/ -0--0-0-0-----7\3-|

|----------------------------------|----------------------------------|
|----------------------------------|----------------------------------|
|----------------------------------|-------------------7-7-7--7-5-----|
|--(3)--3-3-0-3-0-2--2-2-2-2-5\0-1-|--(1)--1-1-1-3-1/ ------------7\3-|

|----------------------------------|--------------------------------------|
|----------------------------------|--------------------------------------|
|----------------------------------|--------------------------5---7-5-----|
|--(3)--3-3-0-3-0-2--2-2-2-2-5\0-1-|--(1)--1-1-1-3-1/ -0-5h7----7-----7\3-|

|----------------------------------| |-----------------------------------------|
|----------------------------------|5|--------------------------------------  -|
|----------------------------------|/|-----------------------------7-5---6\-  -|
|--(3)--3-3-0-3-0-2--2-2-2-2-5\0-1-|4|--(1)--1-1-1-3-1/ -0-0-0-0-0-----7-0-----|

| |-----------||
|2|--       --||
|/|--       --||
|4|-----------||



================================================================================
Part 9:                                                   [ Time 04:06 - 04:26 ]
================================================================================


||---------------------------------|--------------------------------|
||---------------------------------|--------------------------------|
||--*--------*-------*-------*-----|--*--------*-------*------------|
||--0----0-5-0---0-3-0---0-2-0---0-|--0----0-5-0---0-3-0---0-2-0-0--|

|---------------------------------|-----------------------------------|
|---------------------------------|-----------------------------------|
|--*--------*-------*-------*-----|--*--------*-------*-----------5h7-|
|--0----0-5-0---0-3-0---0-2-0---0-|--0----0-5-0---0-3-0---0-(5/7)-----|

|---------------------------------|--------------------------------|
|---------------------------------|--------------------------------|
|--*--------*-------*-------*-----|--*--------*-------*------------|
|--0----0-5-0---0-3-0---0-2-0---0-|--0----0-5-0---0-3-0---0-2-0-0--|

|---------------------------------|---------------------------------||
|---------------------------------|---------------------------------||
|--*--------*-------*-------*-----|--*--------*-------*-----7-7-7-7-||
|--0----0-5-0---0-3-0---0-2-0---0-|--0----0-5-0---0-3-0---0---------||



Why?
Am I dying?
Kill
Have no fear
Lie
Live off lying
Hell
Hell is here



================================================================================
Guitar Solo Backing:                                      [ Time 04:26 - 05:26 ]
================================================================================


||---------------------------------|-----------------------------------|
||---------------------------------|-----------------------------------|
||---------------------------------|-------------------------------5h7-|
||--0--0-0-5-0-0-0-3-0-0-0-2-0-0-0-|--0--0-0-5-0-0-0-3-0-0-0-(5/7)-----|

|---------------------------------|-------------------------------------|
|---------------------------------|-------------------------------------|
|---------------------------------|----------------- /7-7-7-5h7-7-7-7-7-|
|--0--0-0-5-0-0-0-3-0-0-0-2-0-0-0-|--0--0-0-5-0-0-0---------------------|

|---------------------------------|--------------------------------|
|---------------------------------|--------------------------------|
|---------------------------------|--------------------------------|
|--0--0-0-5-0-0-0-3-0-0-0-2-0-0-0-|--0--0-0-5-0-0-0-3-0-0-0-2-0-0--|

|---------------------------------|---------------------------------|
|---------------------------------|---------------------------------|
|---------------------------------|---------------------------------|
|--0--0-0-5-0-0-0-3-0-0-0-2-0-0-0-|--0--0-0-5-0-0-0-3-0-0-0-2-0-0-0-|

|----------------------------|----------------------------|
|----------------------------|----------------------------|
|-- /3---3-3-3---3---3-3-5---|--3---3-3-3--0-3-2--0-------|
|----------------------------|-----------------------3--2-|

|---------------------------------|---------------------------------|
|---------------------------------|---------------------------------|
|---------------------------------|---------------------------------|
|--0--0-0-5-0-0-0-3-0-0-0-2-0-0-0-|--0--0-0-5-0-0-0-3-0-0-0-2-0-0-0-|

|--------------------------|----------------------------|
|--------------------------|----------------------------|
|--3---3-3-3---3---3-3-5---|--3---3-3-3--0-3-2--0-------|
|--------------------------|-----------------------3--2-|

|---------------------------------|---------------------------------|
|---------------------------------|---------------------------------|
|---------------------------------|---------------------------------|
|--0--0-0-5-0-0-0-3-0-0-0-2-0-0-0-|--0--0-0-5-0-0-0-3-0-0-0-2-0-0-0-|

|----------------------------------|----------------------------------|
|----------------------------------|----------------------------------|
|--3-3-3-3-3-3-3-3-3-3-3-3-3-3-3-3-|--3-3-3-3-3-3-3-3-3-3-2-2-0-0-----|
|----------------------------------|------------------------------3-3-|

|---------------------------------|---------------------------------|
|---------------------------------|---------------------------------|
|---------------------------------|---------------------------------|
|--0--0-0-5-0-0-0-3-0-0-0-2-0-0-0-|--0--0-0-5-0-0-0-3-0-0-0-2-0-0-0-|

|---------------------------------|----------------------------------|
|---------------------------------|----------------------------------|
|--3--3-3-3-3-3-3-3-3-3-3-3-3-3-3-|--3-3-3-3-3-3-3-3-3-3-2-2-0-0-----|
|---------------------------------|------------------------------3-3-|

|---------------------------------|-----------------------------------||
|---------------------------------|-----------------------------------||
|---------------------------------|-----------------------5h7-----5h7-||
|--0--0-0-5-0-0-0-3-0-0-0-2-0-0-0-|--0--0-0-5-0-0-0-(5/7)-----5h7-----||



================================================================================
Part 10:                                                  [ Time 05:25 - 05:50 ]
================================================================================


||---------------------------------|--------------------------------|
||---------------------------------|--------------------------------|
||--*--------*-------*-------*-----|--*--------*-------*------------|
||--0----0-5-0---0-3-0---0-2-0---0-|--0----0-5-0---0-3-0---0-2-0-0--|

|---------------------------------|-----------------------------------|
|---------------------------------|-----------------------------------|
|--*--------*-------*-------*-----|-----------*---------------5---5h7-|
|--0----0-5-0---0-3-0---0-2-0---0-|--0----0-5-0---0-3-0-(5/7)---7-----|

|---------------------------------|--------------------------------|
|---------------------------------|--------------------------------|
|--*--------*-------*-------*-----|--*--------*-------*------------|
|--0----0-5-0---0-3-0---0-2-0---0-|--0----0-5-0---0-3-0---0-2-0-0--|

|---------------------------------|--------------------------------|
|---------------------------------|--------------------------------|
|--*--------*-------*-------*-----|--*--------*-------*------------|
|--0----0-5-0---0-3-0---0-2-0---0-|--0----0-5-0---0-3-0---0-2-0-0--|

| |--------------------| |---------------|----------------------------------||
|2|------------------*-|4|--           --|----------------------------------||
|/|------------7-----7-|/|--           --|----------------------------------||
|4|--0-0-0-0-0---0-0---|4|---------------|--3-3-3-3-3-3-3-3-3-3-3-3-3-3-3-3-||



Why?
Am I dying?
Kill
Have no fear
Lie
Live off lying
Hell
Hell is here
I was born for dying



================================================================================
Part 11:  Repeat Part 2                                   [ Time 05:50 - 06:01 ]
================================================================================

================================================================================
Part 12:  Repeat Part 3                                   [ Time 06:01 - 06:23 ]
================================================================================


Life planned out before my birth, nothing could I say
Had no chance to see myself, moulded day by day
Looking back I realise, nothing have I done
Left to die with only friend
Alone I clench my gun



================================================================================
Part 13: Repeat Part 4 with the following variations      [ Time 06:23 - 06:56 ]
================================================================================


Replace the last bar of Part 4 with the following:


     |___3___|             |___3___|
| |-----------------------------------------------| |---------------------||
|4|-----------------------------------------------|2|---------------------||
|/|--2---1---2---3----2/ 0-3---2---3/ --5----6----|/|--7\ ----------------||
|4|-----------------------------------------------|4|-----0-0-12\ 0-0-0-3-||



================================================================================
Part 14:                                                  [ Time 06:56 - 07:38 ]
================================================================================


||-----------------------------------|----------------------------------|
||-----------------------------------|----------------------------------|
||-----------------------------------|-------------------7-7-7--7-5-----|
||--(3)--3-3-0-3-0-2--2-2-2-2-5\ 0-1-|--(1)--1-1-1-1-3/ ------------7\3-|

|----------------------------------|-------------------------------------|
|----------------------------------|-------------------------------------|
|----------------------------------|-----------------------------7-5-----|
|--(3)--3-3-0-3-0-2--2-2-2-2-5\0-1-|--(1)--1-1-1-3-1/ -0-0-0-0-0-----7\3-|

|----------------------------------|---------------------------------------|
|----------------------------------|---------------------------------------|
|----------------------------------|---------------------------5---7-5-----|
|--(3)--3-3-0-3-0-2--2-2-2-2-5\0-1-|--(1)--1-1-1-1-1/ -0-(5/7)---7-----7\3-|

|----------------------------------|-------------------------------------|
|----------------------------------|-------------------------------------|
|----------------------------------|-----------------------7-7-7-7-5-----|
|--(3)--3-3-0-3-0-2--2-2-2-2-5\0-1-|--(1)--1-1-1-1-1/ -0-0-----------7\3-|

|----------------------------------|-------------------------------------|
|----------------------------------|-------------------------------------|
|----------------------------------|------------------------- /7-7-5-----|
|--(3)--3-3-0-3-0-2--2-2-2-2-5\0-1-|--(1)--1-1-1-3-1/ -0-0-0---------7\3-|

|----------------------------------|---------------------------------------|
|----------------------------------|---------------------------------------|
|----------------------------------|----------------------------- /7-5-----|
|--(3)--3-3-0-3-0-2--2-2-2-2-5\0-1-|--(1)--1-1-1-3-1/ -0-0-0-0-0-------7\3-|

|----------------------------------|---------------------------------------|
|----------------------------------|---------------------------------------|
|----------------------------------|---------------------------5---7-5-----|
|--(3)--3-3-0-3-0-2--2-2-2-2-5\0-1-|--(1)--1-1-1-3-1/ -0-(5/7)---7-----7\3-|

|----------------------------------|  |-----------------------------------||
|----------------------------------|15|-----------------------------------||
|----------------------------------|/ |-----------------------------------||
|--(3)--3-3-0-3-0-2--2-2-2-2-5\0-1-|16|--(1)--1-1-1-3-1/ -0-0-0-0-0-0-0-0-||



================================================================================
Part 15:                                                  [ Time 07:38 - 08:17 ]
================================================================================


||----------------------------------------------------------|
||----------------------------------------------------------|
||--4--4--4-4-4--5p4-4--4--4-4-4--4--4-4--4--5p4--4--4--4-4-|
||----------------------------------------------------------|

|-----------------------------------------------------|
|--------------------------------5 p4-----4-----------|
|--4--4--4-4-4--5p4-4--4--4-4-0--------7-----7--5--4--|
|-----------------------------------------------------|

|---------------------------------------------------------|
|---------------------------------------------------------|
|--4--4--4-4-4--5p4-4--4--4-4-4--4--4-4--4--5p4-4--4--4-4-|
|---------------------------------------------------------|

|-----------------------------------------------------|
|--------------------------------5 p4-----4-----------|
|--4--4--4-4-4--5p4-4--4--4-4-0--------7-----7--5--4--|
|-----------------------------------------------------|

|--------------------------------------------------------|
|--------------------------------------------------------|
|--5--5--5-5-5--6p5-5--5--5-5-5--5--5-5-5--6p5-5--5--5-5-|
|--------------------------------------------------------|

|-----------------------------------------------------|
|--------------------------------5 p4-----4-----------|
|--5--5--5-5-5--6p5-5--5--5-5-0--------7-----7--5--4--|
|-----------------------------------------------------|

|--------------------------------------------------------|
|--------------------------------------------------------|
|--4--4--4-4-4--5p4-4--4--4-4-4--4--4-4-4--5p4-4--4--4-4-|
|--------------------------------------------------------|

| |-----------------------------|
|2|-----------------------------|
|/|--4--4--4-4-4--5p4-4--4--4-4-|
|4|-----------------------------|

                           [----------------let ring------------------]
| |------------------------|------------6---------|-(6)---------------|
|4|--*--      -----      --|-------6---------6----|-(6)---------------|
|/|--0--      --*--      --|--4-------------------|--4----------------|
|4|-------------3----------|----------------------|-------------------|

|--------------------------------------------------------|
|--------------------------------------------------------|
|--4--4--4-4-4--5p4-4--4--4-4-4--4--4-4-4--5p4-4--4--4-4-|
|--------------------------------------------------------|

| |-----------------------------|
|2|-----------------------------|
|/|--4--4--4-4-4--5p4-4--4--4-4-|
|4|-----------------------------|

| |------------------------|----------------------||
|4|--*--      -----      --|--6--- /--          --||
|/|--0--      --*--      --|--4--- /--          --||
|4|-------------3----------|----------------------||



================================================================================
End
================================================================================

Tab summary:        Part 1
                    Part 2
                    Part 3
                    Part 4
                    Part 5
                    Part 6
                    Part 7
                    Part 8
                    Part 9
                    Guitar Solo Backing
                    Part 10
                    Part 11
                    Part 12
                    Part 13
                    Part 14
                    Part 15

                    END





Comments


Popular Metallica tabs & chords
Battery 2 Bass Tabs
Cunning Stunts Kill-ride Medley Tabs
Enter Sandman 10 Tabs
Nothing Else Matters 4 Tabs
Purify 1 Tabs
Ronnie Tabs
Sabbra Cadabra 2 Tabs
The Struggle Within 1 Tabs
Until It Sleeps 2 Tabs
Creeping Death Ukulele


Song lyrics



↑ Back to top | Tablatures and chords are parodies/interpretations of the original songs. You may use it for private study, scholarship, research or language learning purposes only
© 2014 AZChords.com Contact us | Privacy policy | DMCA | Add/correct tabs | Request tabs | Top 50 tabs