» » »

Damage Inc Tabs (ver.3)

Artists:  A B C D E F G H I J K L M N O P Q R S T U V W X Y Z # 

Damage Inc Tabs (ver.3)

Metallica
Rating:
0/5 (0 votes)

Hard to play? Try these video lessons and learn fast.
                Intro (after Cliff's solo)
||-----------------------------------------------------------------------------
||-----------------------------------------------------------------------------
||-----------------------------------------------------------------------------
||2--2--2-----2-----3--3--3--3-----2--2--2-----2-----3--3--3--3-----2--2--2----
||2--2--2-----2-----3--3--3--3-----2--2--2-----2-----3--3--3--3-----2--2--2----
||0--0--0-----0-----1--1--1--1-----0--0--0-----0-----1--1--1--1-----0--0--0----

------------------------------------------||
------------------------------------------||
------------------------------------------||
2--2--2--2--2-----2--2--2--2--2--2--2--2--||
2--2--2--2--2-----2--2--2--2--2--2--2--2--||
0--0--0--0--0-----0--0--0--0--0--0--0--0--||

||-----------------------------------------------------------------------------
||-----------------------------------------------------------------------------
||-----------------------------------------------------------------------------
||-----------------------------------------------------------------------------
||----------------------------------------------------7/8-----7/8-----7--------
||-0--0--0--0--0--0--0--0--0--0--0--0--0--0--0--0------------------------------

--------------------------------------------------7/8-----7/8-----7------------
0--0--0--0--0--0--0--0--0--0--0--0--0--0--0--0---------------------------------

--------------------------------------------------7/8-----7/8-----7------------
0--0--0--0--0--0--0--0--0--0--0--0--0--0--0--0---------------------------------

--------------------------------------------------5\4-----5\4--5--||
--------------------------------------------------5\4-----5\4--5--||
2--2--2--2--2--2--2--2--2--2--2--2--2--2--2--2--------------------||

---4---------------------------------------------------------------------------
---4-----5-----7-----5-----4--4--4--4--4--4--4--4--4--4--4--4--4--4--4--4------
---2-----5-----7-----5-----4--4--4--4--4--4--4--4--4--4--4--4--4--4--4--4------
---------3-----5-----3-----2--2--2--2--2--2--2--2--2--2--2--2--2--2--2--2------

  Verse Riff
||---------------------------------------------------------------------------||
||---------------------------------------------------------------------------||
||---------------------------------------------------------------------------||
||-8\-----------------------8\---------------------8\---------------------8--||
||-8\-----------------------8\---------------------8\---------------------8--||
||-6\---0--0--0---0--0--0---6\-0--0--0---0--0--0---6\-0--0--0---0--0--0---6--||

  Chorus
||-----------------------------------------------------------------------------
||-----------------------------------------------------------------------------
||--4--------------------------------------------------------------------------
||--4-----5-----7-----5-----4--4--4--4--4--4--4--4--4--4--4--4--4--4--4--4-----
||--2-----5-----7-----5-----4--4--4--4--4--4--4--4--4--4--4--4--4--4--4--4-----
||--------3-----5-----3-----2--2--2--2--2--2--2--2--2--2--2--2--2--2--2--2-----

------4----------------------------------------------------------------------||
------4-----5-----7-----5-----4--4--4--4--4--4--4--4--4--4--4--4--4--4--4--4-||
------2-----5-----7-----5-----4--4--4--4--4--4--4--4--4--4--4--4--4--4--4--4-||
------------3-----5-----3-----2--2--2--2--2--2--2--2--2--2--2--2--2--2--2--2-||

       After Chorus
||------------------------------------------------------------||
||------------------------------------------------------------||
||------------------------------------------------------------||
||---2--2--2-----2-----3--3--3--3-----2--2--2--2--2--2--2--2--||
||---2--2--2-----2-----3--3--3--3-----2--2--2--2--2--2--2--2--||
||---0--0--0-----0-----1--1--1--1-----0--0--0--0--0--0--0--0--||
            
Hard to play? Try these video lessons and learn fast. | Correct




comments powered by Disqus
↑ Back to top | Tablatures and chords are parodies/interpretations of the original songs. You may use it for private study, scholarship, research or language learning purposes only