» » »

Damage Inc Tabs (ver.2)

Artists:  A B C D E F G H I J K L M N O P Q R S T U V W X Y Z # 

Damage Inc Tabs (ver.2)

Metallica
Rating:
0/5 (0 votes)

Hard to play? Try these video lessons and learn fast.
                Damage Inc. Solo _Damage Inc. Written and Performed by Metallica

	This is the main solo from Damage Inc. this isn't the whole thing, 
there's a little bit more but it's pretty simple, I think Hammett starts 
using a Wah-Wah near the end, I can't remember for sure, I usually just 
improvise the rest after I finish what I have tabbed.  Anyway, it's 
mostly alternate picked, really fast, I guess you'll have to listen to 
it anyway to figure it all out, but it's not that hard to play.  Have 
fun, MetallicA Rules!

e-15-14-12-12-12-12 Do this 5 times
b------------------
g------------------
d------------------
a------------------
E------------------

e-15-15-15-15-14-12-15-15-15-15-14-12-15-12-15-12-15-12-15-bend
b--------------------------------------------------------------
g--------------------------------------------------------------
d--------------------------------------------------------------
a--------------------------------------------------------------
E--------------------------------------------------------------

e-17-15-14-15-14 15-14-12|-14-12------------------
b------------------------|-------15-12-14-12----12
g------------------------|-------------------14---
d------------------------|------------------------
a------------------------|------------------------
E------------------------|------------------------

e------------------------------------------|
b---------p--p-----p-------p--h--p--p------|
g-14-13-14-13-11-13-11---14-13-14-13-11----|
d---------------------14----------------14-|
a------------------------------------------|
E------------------------------------------|

e-------------------|repeat this 3 times
b---p-----p--p------|
g-16-14-16-14-13----|
d-------------------|
a-------------------|
E-------------------|

e------------------------------------------|
b---------p--p-----p-------p--h--p--p------|
g-14-13-14-13-11-13-11---14-13-14-13-11----|
d---------------------14----------------14-|
a------------------------------------------|
E------------------------------------------|

e-------------------|repeat this 3 times
b---p-----p--p------|
g-16-14-16-14-13----|
d-------------------|
a-------------------|
E-------------------|

e------------h--p--|---------h--p---|
b-17----14-14-17-14|----14-14-17-14-|
g----16------------|-16-------------|
d------------------|----------------|
a------------------|----------------|
E------------------|----------------|

e---------------------------------------------------------|
b---------------------------------------------------------|
g-15-0-0-16-0-0-17-0-0-18-0-0-19-0-0-20-0-0-21-0-0-22-0-0-|
d---------------------------------------------------------|
a---------------------------------------------------------|
E---------------------------------------------------------|

e----12----12----12-----------------|
b-15----15----15----15bend-13-12-13-|
g-----------------------------------|
d-----------------------------------|
a-----------------------------------|
E-----------------------------------|
           (v)                       (v)
e----14-15-17-17/bend-17/\bend-15-14-15-|
b-17------------------------------------|
g---------------------------------------|
d---------------------------------------|
a---------------------------------------|
E---------------------------------------|

e-14-15-17-15-15-14-15-14---14----------|
b------------------------17----17-15-14-|
g---------------------------------------|
d---------------------------------------|
a---------------------------------------|
E---------------------------------------|

e-------------17----| 
b-15-14-------------|
g-------16-14----14-|
d-------------------|
a-------------------|
E-------------------|

	Just improvise a little staying within the same basic ideas, after this 
point, there's a couple of stops I think before the very end of the 
solo, but you should be able to figure the rest out yourself.
            
Hard to play? Try these video lessons and learn fast. | Correct




comments powered by Disqus
↑ Back to top | Tablatures and chords are parodies/interpretations of the original songs. You may use it for private study, scholarship, research or language learning purposes only