>
 >
Damage, Inc

Damage, Inc Guitar Tabs

Metallica - Damage, Inc chords, tabs, tablatures, lyrics

Guitar lessons | Add/correct | Request | Top 50 tabs Artists:  A B C D E F G H I J K L M N O P Q R S T U V W X Y Z 0-9

Damage, Inc Guitar Tabs – Metallica

CD, Sheet music, Poster

Do you like Damage, Inc? Share with your friends now
TabsTabs v2Tabs v3
Damage, Inc.
performed on Master of Puppets 

Intro
Two guitars
|--5------3------|----------------|----------------|----------------|
|----------------|--3------5------|--7------7------|--8------3------|
|--2------4------|--4------6------|--7------4------|--5------7-p-0--|
|----------------|----------------|----------------|----------------|
|----------------|----------------|----------------|----------------|
|----------------|----------------|----------------|----------------|
 volume swells, with heavy echo

|--5------3------|----------------|----------------|----------------|
|----------------|--3------5-p-3--|--7-p-3--7-p-3--|--8--p-5h7p5-3--|
|--2------4------|--4------6-p-2--|--7------4------|--5--p-2h4p2-0--|
|----------------|----------------|----------------|----------------|
|----------------|----------------|----------------|----------------|
|----------------|----------------|----------------|----------------|

Fast Tempo=190
||------------|--------------------|------------|--------------------|
||------------|--------------------|------------|--------------------|
||------------|--------------------|------------|--------------------|
||--2----2----|--2----2---3--3--3--|--2----2----|--2----2---3--3--3--|
||--2----2----|--2----2---3--3--3--|--2----2----|--2----2---3--3--3--|
||--0----0----|--0----0---1--1--1--|--0----0----|--0----0---1--1--1--|
                                           
|--------------|------------------|--------------|--------------||
|--------------|------------------|--------------|--------------||
|--------------|------------------|--------------|--------------||
|--2--2--2--2--|--2--2--2--3-3-3--|--2--2--2--2--|--2--2--2--2--||
|--2--2--2--2--|--2--2--2--3-3-3--|--2--2--2--2--|--2--2--2--2--||
|--0--0--0--0--|--0--0--0--1-1-1--|--0--0--0--0--|--0--0--0--0--||

  Rhy Fig 1
||-------------------------------------------------|------------------------|
||-------------------------------------------------|------------------------|
||-------------------------------------------------|------------------------|
||-------------------------------------------------|-----7/8-----7/8-----7/-|
||-------------------------------------------------|-----7/8-----7/8-----7/-|
||-0--0--0--0--0--0--0--0--0--0--0--0--0--0--0--0--|--5-------X-------X-----|
   PM............................................|
 
||-------------------------------------------------|------------------------|
||*------------------------------------------------|------------------------|
||-------------------------------------------------|------------------------|
||--/8---------------------------------------------|-----7/8-----7/8-----7/-|
||*-/8---------------------------------------------|-----7/8-----7/8-----7/-|
||-------0--0--0--0--0--0--0--0--0--0--0--0--0--0--|--5-------X-------X-----|
         PM......................................|

|------------------------------------------------|------------------------|
|------------------------------------------------|------------------------|
|------------------------------------------------|------------------------|
|-/8---------------------------------------------|-----7/8-----7/8-----7/-|
|-/8---------------------------------------------|-----7/8-----7/8-----7/-|
|------0--0--0--0--0--0--0--0--0--0--0--0--0--0--|--5-------X-------X-----|
       PM......................................|
                                                  ________________________
                                                 |1.
|------------------------------------------------|------------------------|
|------------------------------------------------|------------------------|
|------------------------------------------------|------------------------|
|-/8---------------------------------------------|-----5\4-----5\4-----5\-|
|-/8---------------------------------------------|-----5\4-----5\4-----5\-|
|------2--2--2--2--2--2--2--2--2--2--2--2--2--2--|--3-------X-------X-----|       
       PM......................................|
 __________________________________________________________________________
                                                                           |
|------------------------------------------------|-------------------------||
|------------------------------------------------|------------------------*||
|------------------------------------------------|-------------------------||
|-\4---------------------------------------------|-----7/8-----7/8-----7/--||
|-\4---------------------------------------------|-----7/8-----7/8-----7/-*||
|------0--0--0--0--0--0--0--0--0--0--0--0--0--0--|--5-------X-------X------||
       PM......................................|
 ________________________
|2.                                   end Rhy Fig 1
|------------------------|------------|------------|
|------------------------|------------|------------|
|------------------------|--4---------|------------|
|-----5\4-----5\4-----5--|--4----5----|--7----5----|
|-----5\4-----5\4-----5--|--2----5----|--7----5----|
|--3-------X-------X-----|-------3----|--5----3----|

|--------------------------------------------------|-------------|
|--------------------------------------------------|-------------|
|--------------------------------------------------|-------------|
|--4--4--4--4--4--4--4--4--4--4--4--4--4--4--4--4--|--4----------|
|--4--4--4--4--4--4--4--4--4--4--4--4--4--4--4--4--|--4----------|
|--2--2--2--2--2--2--2--2--2--2--2--2--2--2--2--2--|--2----------|
   PM............................................|

   Rhy Fig 2 
||---------------------------|---------------------------|
||*--------------------------|---------------------------|
||---------------------------|---------------------------|
||---------------------------|---------------------------|
||*-8\5----------------------|--8\5----------------------|
||--6\3--0-0-0--0--0--0-0-0--|--6\3--0-0-0--0--0--0-0-0--| 
         PM................|        
                                             end Rhy Fig 2
|---------------------------|----------------------------||-----------|
|---------------------------|---------------------------*||-----------|
|---------------------------|----------------------------||-----------|
|---------------------------|----------------------------||-----------|
|--8\5----------------------|--8\5----------------------*||----8------|
|--6\3--0-0-0--0--0--0-0-0--|--6\3--1-1-1--0--0--0-0-0---||----6------|

S/S
Verses w/ Rhy Fig 2

  Chorus
||------------|------------|--------------------------------------------------|
||------------|------------|--------------------------------------------------|
||--4---------|------------|--------------------------------------------------|
||--4----5----|--7----5----|--4--4--4--4--4--4--4--4--4--4--4--4--4--4--4--4--|
||--2----5----|--7----5----|--4--4--4--4--4--4--4--4--4--4--4--4--4--4--4--4--|
||-------3----|--5----3----|--2--2--2--2--2--2--2--2--2--2--2--2--2--2--2--2--|
                              PM............................................|

||------------|------------|--------------------------------------------------|
||------------|------------|--------------------------------------------------|
||--4---------|------------|--------------------------------------------------|
||--4----5----|--7----5----|--4--4--4--4--4--4--4--4--4--4--4--4--4--4--4--4--|
||--2----5----|--7----5----|--4--4--4--4--4--4--4--4--4--4--4--4--4--4--4--4--|
||-------3----|--5----3----|--2--2--2--2--2--2--2--2--2--2--2--2--2--2--2--2--|
                              PM............................................|

  After Chorus
||------------|-------------------|--------------|--------------||
||------------|-------------------|--------------|--------------||
||------------|-------------------|--------------|--------------||
||--2----2----|--2----2--3--3--3--|--2--2--2--2--|--2--2--2--2--||
||--2----2----|--2----2--3--3--3--|--2--2--2--2--|--2--2--2--2--||
||--0----0----|--0----0--1--1--1--|--0--0--0--0--|--0--0--0--0--||

[...]

Solo
|--15p12--12--15--15p14--12--15--15p14--12--15--15p14--12--12--| 
|--------------------------------------------------------------|
|--------------------------------------------------------------|
|--------------------------------------------------------------|
|--------------------------------------------------------------|
|--------------------------------------------------------------|

|--15p14--12--15--15p14--12--15--15p14--12--15--15p14--12--15--|
|--------------------------------------------------------------|
|--------------------------------------------------------------|
|--------------------------------------------------------------|
|--------------------------------------------------------------|

|--15--15--15--15--15--14p12--15--15--15--15--15p14p12--12--|
|-----------------------------------------------------------|
|-----------------------------------------------------------|
|-----------------------------------------------------------|
|-----------------------------------------------------------|
|-----------------------------------------------------------|

|--15--14--12--12--15--14--12--15-b17--------------14--|
|----------------------------------------------15------|
|-----------------------------------------/16----------|
|------------------------------------------------------|
|------------------------------------------------------|
|------------------------------------------------------|

|--17--15--14--15p14--15p14----14--X-------|
|---------------------------14--------17\--|
|------------------------------------------|
|------------------------------------------|
|------------------------------------------|
|------------------------------------------|

|-----------------------------------------------|-----------------------------------|
|--15\14--12--14----12\10h12----10\9--10p9------|----10--10p9---------10--10p9------|
|-------------------------------------------11--|--9-----------11--9------------11--|
|-----------------------------------------------|-----------------------------------|
|-----------------------------------------------|-----------------------------------|
|-----------------------------------------------|-----------------------------------|

|-----------------------------------|------------------------------------|
|-----10--10p9---------10--10p9-----|------12--12p10p9------12--12p10p9--|
|--9------------11--9------------9--|--11---------------11---------------|
|-----------------------------------|------------------------------------|
|-----------------------------------|------------------------------------|
|-----------------------------------|------------------------------------|

|------9--9-----------------9--9-------------|-----------------------------------|
|------------12p10----------------12p10------|------12-12p10p9------12--12p10p9--|
|--11---------------11--11---------------11--|--11--------------11---------------|
|--------------------------------------------|-----------------------------------|
|--------------------------------------------|-----------------------------------|
|--------------------------------------------|-----------------------------------|

|-----(9)--9-----------------9--9------------|-12b14--r12-b14--r12--9--9h12-12p9--9-|
|-------------12p10----------------12p10-----|--------------------------------------|
|-11-----------------11--11---------------11-|--------------------------------------|
|--------------------------------------------|--------------------------------------|
|--------------------------------------------|--------------------------------------|
|--------------------------------------------|--------------------------------------|

|--12p9--9--9--12--9---------9--12--9---------9--12p9----------|
|---------------------12b14------------12b14-----------(12)----|
|--------------------------------------------------------------|
|--------------------------------------------------------------|
|--------------------------------------------------------------|
|--------------------------------------------------------------|

|------------------------------------------------|
|--10p7--0--11p8--0--0--12p9--0--0--13p10--0--0--|
|------------------------------------------------|
|------------------------------------------------|
|------------------------------------------------|
|------------------------------------------------|

|------------------------------------------------------|
|--14p11--0--0--15p12--0--0--16p13--0--0--17p14--0--0--|
|------------------------------------------------------|
|------------------------------------------------------|
|------------------------------------------------------|
|------------------------------------------------------|

    UB      UB      UB       UB      UB
|-----12------12------12-------12------12----------|---------------------14--|
|--15b17---15b17---15b17----15b17---15b17--r15p12--|--13-~-~--------/15------|
|--------------------------------------------------|-------------------------|
|--------------------------------------------------|-------------------------|
|--------------------------------------------------|-------------------------|
|--------------------------------------------------|-------------------------|

|--15--17--17--17b19--17b19-r17p14--|--15--~--~--~--14--15--|
|-----------------------------------|-----------------------|
|-----------------------------------|-----------------------|
|-----------------------------------|-----------------------|
|-----------------------------------|-----------------------|
|-----------------------------------|-----------------------|

|--17--15--14--15p14--15p14-------14----------|-----------------17-----------------|
|----------------------------17-------17--14--|--15p14------15---------------------|
|---------------------------------------------|---------16----------14--14--16b18--|
|---------------------------------------------|------------------------------------|
|---------------------------------------------|------------------------------------|
|---------------------------------------------|------------------------------------|

|----------------------------------------------------|-------------------------17b19--|
|----14-17p14------14--17p14------14--17p14------14--|--17p14--17b19----r17p14--------|
|--------------16-------------16-------------16------|--------------------------------|
|----------------------------------------------------|--------------------------------|
|----------------------------------------------------|--------------------------------|
|----------------------------------------------------|--------------------------------|

       +       o      +          o       +
|-------------------------|------------------------|
|-----15------15-----15---|-----15------15---------|
|--14b16---14b16--14b16---|--14b16---14b16---------|
|-------------------------|------------------------|
|-------------------------|------------------------|
|-------------------------|------------------------|
 w/ wha  (+=treble  o=bass)

|--15--15--15--15--15--15--15--12--15--15--15--15--15--15p12--12--|
|-----------------------------------------------------------------|
|-----------------------------------------------------------------|
|-----------------------------------------------------------------|
|-----------------------------------------------------------------|
|-----------------------------------------------------------------|

|--15--15--15--12--15--15--12--15--15b17-~-~-----------|
|-----------------------------------------------10/12--|
|------------------------------------------------------|
|------------------------------------------------------|
|------------------------------------------------------|
|------------------------------------------------------|

|--10--10--12--12-/14--14--15--15--/17---15--15--17--17/--|
|---------------------------------------------------------|
|---------------------------------------------------------|
|---------------------------------------------------------|
|---------------------------------------------------------|
|---------------------------------------------------------|

|--/19--19--19--17--17--17--19--19-/20--20--20--19--19--19--20--20/--|
|--------------------------------------------------------------------|
|--------------------------------------------------------------------|
|--------------------------------------------------------------------|
|--------------------------------------------------------------------|
|--------------------------------------------------------------------|

|--/22--22--20--19--22--20--18--18--21-19-17-17-20-18-16-16-19-17--|
|------------------------------------------------------------------|
|------------------------------------------------------------------|
|------------------------------------------------------------------|
|------------------------------------------------------------------|
|------------------------------------------------------------------|

|--15-15-18-16-14-14-17-15-13-13-16-14-12-15-13-12-14-12-10--\--|---------------|
|---------------------------------------------------------------|---------------|
|---------------------------------------------------------------|---------------|
|---------------------------------------------------------------|---------------|
|---------------------------------------------------------------|---------------|
|---------------------------------------------------------------|---------------|

                   T       T       T       T       T       T       T       T
|--------------|-------------------------------------------------------------------|
|-----------0--|--12p10p7-12p10p7-13p10p7-13p10p7-14p7h10-14p7h10-15p7h10-15p7h10--|
|--------------|-------------------------------------------------------------------|
|--------------|-------------------------------------------------------------------|
|--------------|-------------------------------------------------------------------|
|--------------|-------------------------------------------------------------------|

    T       T       T       T       T       T       T
|-------------------------------------------------------|
|--16p7h10-16p7h10-16p7h10-16p7h10-16p7h10-16p7h10-16\--|
|-------------------------------------------------------|
|-------------------------------------------------------|
|-------------------------------------------------------|
|-------------------------------------------------------|

|------------|------------|------------------------------------------|
|------------|------------|------------------------------------------|
|--4---------|------------|------------------------------------------|
|--4----5----|--7----5----|------------------------------------------|
|--2----5----|--7----5----|--4----4--4----4--4----5---5---5----5--5--|
|-------3----|--5----3----|--2----2--2----2--2----3---3---3----3--3--|
                                 PM...........|      PM............|

|-----------------------------------------|
|-----------------------------------------|
|-----------------------------------------|
|-----------------------------------------|
|--7----7--7----7--7---8----8--8----8--8--|
|--5----5--5----5--5---6----6--6----6--6--|
       PM...........|      PM...........|

||------------------------------|---------------------------|
||*-----------------------------|---------------------------|
||------------------------------|---------------------------|
||------------------------------|---------------------------|
||*-------7-7------8------5-----|--7-7-----8-----7-7-----8--|
||--0--0-------0------0------0--|-------0-----0-------0--6--|
   PM...|     PM     PM      PM         PM    PM      PM
                                ____________________________
                               |1.                          |
|------------------------------|----------------------------||
|------------------------------|---------------------------*||
|------------------------------|----------------------------||
|------------------------------|------------------------7---||
|--------7-7------8------5-----|--7-7-----8-----7-7-----5--*||
|--0--0-------0------0------0--|-------0-----0-------0------||
  PM...|     PM     PM     PM         PM    PM      PM
 ___________________________
|2.                         |
|---------------------------|------------|------------|
|---------------------------|------------|------------|
|---------------------------|--4---------|------------|
|------------------------4--|--4----5----|--7----5----|
|--7-7-----3-----5-5-----2--|--2----5----|--7----5----|
|-------0-----0-------0-----|-------3----|--5----3----|
       PM    PM      PM
                                         DS al coda
|--------------------------------------------------|
|--------------------------------------------------|
|--------------------------------------------------|
|--------------------------------------------------|
|--4--4--4--4--4--4--4--4--4--4--4--4--4--4--4--4--|
|--2--2--2--2--2--2--2--2--2--2--2--2--2--2--2--2--|

Coda
|----------------------|----------------------|
|----------------------|----------------------|
|----------------------|----------------------|
|----4----4------------|----------------------|
|----2----2----5----5--|----7----7----5----5--|
|--------------3----3--|----5----5----3----3--|

|--------------------------------------------------|--------------------|
|--------------------------------------------------|--------------------|
|--------------------------------------------------|--------------------|
|--------------------------------------------------|--------------------|
|--4--4--4--4--4--4--4--4--4--4--4--4--4--4--4--4--|--4-----------------|
|--2--2--2--2--2--2--2--2--2--2--2--2--2--2--2--2--|--2-----------------|

|------------|-----------------|-----------------|
|------------|-----------------|-----------------|
|------------|-----------------|-----------------|
|------------|-----------------|-----------------|
|--2----2----|--2----2--3-3-3--|--3--------------|
|--0----0----|--0----0--1-1-1--|--1--------------|





Comments


Popular Metallica tabs & chords
Ain't My Bitch 1 Bass Tabs
Am I Evil Bass Tabs
Battery 3 Bass Tabs
Battery 4 Bass Tabs
Dont Tread On Me Bass Tabs
Orion Bass Tabs
The Unforgiven Chords
All Within My Hands 1 Tabs
Hero Of The Day Intro Tabs
Sabra Cadabra 1 Tabs


Song lyrics



↑ Back to top | Tablatures and chords are parodies/interpretations of the original songs. You may use it for private study, scholarship, research or language learning purposes only
© 2014 AZChords.com Contact us | Privacy policy | DMCA | Add/correct tabs | Request tabs | Top 50 tabs