» » »

Battery Tabs (ver.3)

Artists:  A B C D E F G H I J K L M N O P Q R S T U V W X Y Z # 

Battery Tabs (ver.3)

Metallica
Rating:
0/5 (0 votes)

Hard to play? Try these video lessons and learn fast.
                (Intro)
Standard tuning

Guitar 1 
E--------------
B--------------
G--------------  
D-3-2--2--2---0   (keep repeating throughout intro)
A-2-2--0--0---5
E-0-0--1--2-0-3

Guitar 2
E-------------
B-------------
G-4h5-2--4-4h5-2--4h5-2-0--5-4
D-------------
A-------------
E-------------

Guitar 3
E-7h8-5--7-7h8-5--7h8-5-3--8-7
B-------------
G-------------
D-------------
A-------------
E-------------

I'm not totally sure about guitar 3 but it sounds good. 
Metallica kicks ass!
            
Hard to play? Try these video lessons and learn fast. | Correct




comments powered by Disqus
↑ Back to top | Tablatures and chords are parodies/interpretations of the original songs. You may use it for private study, scholarship, research or language learning purposes only