» » »

Battery Bass tabs (ver.1)

Artists:  A B C D E F G H I J K L M N O P Q R S T U V W X Y Z # 

Battery Bass tabs (ver.1)

Metallica
Rating:
0/5 (0 votes)

Hard to play? Try these video lessons and learn fast.
                
                   "Battery" on the album "Master Of Puppets" 

                                  Metallica


tempo=75

Intro
|--------------------||----------------|---------------|----------------|
|--4/4-------12------||:---------------|---------------|----------------|
|------|---pause---|-||----------------|---------------|----------------|
|--------------------||0---0-0-1-------|2---2-2-3------|0---0-0-1-------|

|----------------------||----------------||
|---------------------:||----------------||
|----------------------||----2-----------||
|2---2-2-3---3--3--1-0-||0-------3---2---||

tempo=190

||------------|-----------------|-------------|-------|------|--------------||
||------------|-------3---------|-------------|-------|------|--------------||
||------------|--|---pause---|--|-------------|-------|------|--------------||
||0-----------|-----------------|0-------6-6-5|0------|------|6-5--5---5---5||

                                                   -----------------|
                                                  |1
||----------------|---------------|---------------|----------------||
||:---------------|----------5-5-4|5--------------|---------------:||
||----------------|---------------|---------------|----------------||
||-0-000-000-6-6-5|0-000-000------|--000-000-6-6-5|0-2---3-0-3--4--||

-----------------
|2
|-------------|-----------------|---------------|--------------||
|-------------|-----------------|----5-5-----5-5|----7-7-------||
|-------------|-----7-7------7-7|---------------|------------6-||
|6--5--5--5--5|0--------0--00---|3-------3-33---|5-5-----1-0---||

1st,2nd,3rd Verses
                                                                  X2
||-----------------|--------------|---------------|------------|
||:----------------|-----------554|5--------------|------------|
||-7----7----7-----|7----7----7---|-----7----7----|------------|
||----00---0---66-5|---00---00----|---00---00--665|0--2---303-4|

|---------------|-------------|------------|------------------|
|---------------|----5------55|-----7-7----|------------------|
|------7------77|-------------|---------776|7----7----7-------|
|0----------00--|3-3---22333--|5-5---------|--0-0--0-0---6-6-5|

|--------------|---------------|--------------|--------------|
|-----------554|5--------------|--------------|--------------|
|-7----7---7---|----7---7------|--------------|----7-------7-|
|----00--00----|--00--00--6-6-5|0--2--3-0-3--4|0--------000--|

|---------------|--------------|-------------|------------|
|-----5-5-----55|--------------|5------------|---------554|
|---------------|--------7-7-6-|---7--7------|7----7--7---|
|3--------3-33--|5-5-5-5-------|-00-00--6-6-5|---00-00----|

|----------|-----------|--------------|----------------|
|---------5|-----------|--------------|-----------5-5-4|
|---7------|---2------6|7----7--7-----|-----7---7------|
|0-----7---|3------0---|---00-00-6-6-5|0--00--00-------|

|------------------|-------------|-----------|-----------| 3rd time to Coda
|5--------------8--|-------------|--------554|5----------|
|---7--7----------8|7---7--7-----|7---7--7---|---7--7----|
|-00-00--6-6-5-----|--00-00-6-6-5|--00-00----|-00-00--665|

              -------------------------------------------|-------------|
              |1                                         |2
|-------------|------------|------------|---------------||-------------||
|-------------|------------|-----5-----5|--------------:||-------------||
|1------------|----7-----7-|------------|-------------6-||-------------||
|----1---0----|0-0---0-0---|3-3----3-3--|5-55-5-5-3-0---||0------------||

Interlude
|--------------|--------------|---------------|--------------|
|--------------|--------------|--------5------|5-----5-------|
|-------7------|-------7---7--|---------------|------------2-|
|0--0-0---0---0|0--0-0---0---0|3---3-3---3-3-3|--3-----0-0---|

|---------------|---------------|---------------|----------4||
|---------------|---------------|--------5------|---------5-||
|-------7----7--|--------7---7--|---------------|-----------||
|0--0-0---0---0-|0-----0---0---0|3---3-3---3-3-3|3------3---||
                                                                       X3
||------------------|---------------|--------------|----------------||
||:-----------------|---------------|--------------|--4-5-7-8-8-9--:||
||---------7-----7--|----7-7--------|-------------7|7---------------||
||-0---0-0---0-0---0|0-0-----8-8-7-7|3---3-3-3-0---|----------------||
                                              P

|--------------|------------|--------|--------|-------------||
|--------------|------------|--------|--------|-------------||
|-------7-----7|----------3-|--------|--------|-------------||
|0--0-0---0-0--|0-----3-----|3-------|(3)-----|6--5--5--5--5||

Guitar Solo
||-------------------|------------------|----------------|----------------|
||:------------------|------------------|----------------|----------------|
||-7-----7----7------|------------------|7----7---7------|----------------|
||---0-0--0-0---6-6-5|0--6-6-5--0--6-5-5|--0-0-0-0--6-6-5|0--6-6-5-0-3-3-1|

|-------------------|------------------|--------------------|--------------||
|-------------------|------------------|--------------------|-------------:||
|7-----7-----7------|------------------|7------7-----7------|--------------||
|--0-0---0-0---6-6-5|0--6-6-5--0--6-6-5|---0-0---0-0---6-6-5|6--5--5--5--5-||

|--------------|-----------------|--------------|----------------|
|--------------|----5-5-------5-5|--------------|----4---------4-|
|---7-------7--|-----------------|--------------|----------------|
|0-----0-00---0|3-3--------33----|5---5-5-5-005-|2-2-------2-2---|

|--------------|----------------|----------------|----------------||
|--------------|----5-5------5-5|----------------|----------------||
|---7-------7-7|----------------|----------------|----------------||
|0----0-0-00---|3-3-------33----|5---------------|--------------2-||

                                  X4                              D.S. al Coda
||-----------------|---------------||-------------|----------------||
||:----------------|--------------:||-------------|----------------||
||-----------------|---------------||-------------|--------------6-||
||-1(0)6(0)7(0)6(0)|7(0)6(0)7(0)2--||1------------|----------1-1---||

    Coda
    |------|   |-------------|----------------|   |----------------|   |-------------|
 2/4|------|4/4|-------------|-----------5-5-4|5/4|----------------|4/4|-------------|
    |1-----|   |7---7---7----|7----7---7------|   |7---7---7----1--|   |7---7---7----|
    |----1-|   |-00--00---665|--00--00--------|   |--00--00-665---1|   |--00--00--655|
    Bat-ter-   -y!
                                                                           X7
|---------------|----------------|--------||---------------|----------------||
|----------5-5-4|5---------------|--------||:--------------|---------------:||
|7---7---7------|----7---7-------|1-------||---------------|----------------||
|--00--00-------|--00--00---6-6-5|--1-0---||-1-6(0)7(0)6(0)|7(0)6(0)7(0)-2--||

|--------------|-----------|-------------|------------|---------||
|--------------|-----------|-------------|------------|---------||
|--------------|-----------|-------------|------------|---------||
|1-6(0)7(0)6(0)|7----------|(7)----------|2-2--1--1--1|0--------||


Ok here's the song, i tryied to make a feeling of the time but is hard!!!
So listen the Cd for rythm!
If you got problems,suggestion(anyway I think this version is really right!),
or Dream Theater's Btabs, please contact me.

Ok then METAL 'UP YOUR Your ASS!!!
            
Hard to play? Try these video lessons and learn fast. | Correct




comments powered by Disqus
↑ Back to top | Tablatures and chords are parodies/interpretations of the original songs. You may use it for private study, scholarship, research or language learning purposes only