» » »

Metallica, Battery Bass tabs (ver.2)

Artists:  A B C D E F G H I J K L M N O P Q R S T U V W X Y Z # 

Battery Bass tabs (ver.2)

Metallica Tabs
 Rating:
4/5 (4 votes)
Battery lessons Tabs too difficult? Try these video lessons and learn fast
                Battery

bass track for the original song on the Master of Puppets album.
The link to this bass track alone is here:
Hope you all enjoy.
-----------------------------------------------------------------------------
Battery
Metallica


Acoustic guitar intro for the first forty seconds...

Intro (Play x2)
G|--------------------------|
D|--------------------------|
A|--------------------------|
E|-0~--0-0-1~--2~--2-2-3~---|

G|--------------------------------|
D|--------------------------------|
A|--------------------------------|
E|-0~--0-0-1~--2~--2-2-3~--3-2-1--|

End Intro
G|-----------------|
D|-----------------|
A|----2~/----------|
E|-0~-----3~-2~-0--|


Verse Intro
G|-------------|
D|-------------|
A|-------------|
E|-0--6-6-5-0--|

G|------------|
D|------------|
A|------------|
E|-6-5-5-5-5--|


Verse Riff 1 (Play x2)
G|--------------------------------|
D|--------------------------------|
A|--------------------------------|
E|-0-0--0--6-5-5-0-0--0--3-3-2-3--|

G|------------------------------|
D|------------------------------|
A|------------------------------|
E|-0--0--6-5-5-(0-2--3-0-3--4)--|

G|------------|
D|------------|
A|------------|
E|-6-5-5-5-5--|


Bass Break 1
G|--------------------------------------------------|
D|--------------------------------------------------|
A|---7----7-7---7-----------------------------/6-7--|
E|-0----0-----0---3-3--0h3-3-0-3-5-5-5-0-5-5--------|


Verse 1A
G|--------------------------------|
D|--------------------------------|
A|--------------------------------|
E|-0-0--0--6-5-5-0-0--0--3-3-2-3--|

G|----------------------------|
D|----------------------------|
A|----------------------------|
E|-0--0--6-5-5-0-2--3-0-3--4--|


Bass Break 2
G|----------------------------------------------------|
D|----------------------------------------------------|
A|---7----7-7---7-------------------------------/6-7--|
E|-0----0-----0---3-3--0h3-3-0-3-5-5-5-0-5-5--0-------|


Verse 1B
G|--------------------------------|
D|--------------------------------|
A|--------------------------------|
E|-0-0--0--6-5-5-0-0--0--3-3-2-3--|

G|----------------------------|
D|----------------------------|
A|----------------------------|
E|-0--0--6-5-5-0-2--3-0-3--4--|


Bass Break 3
G|----------------------------------------------------|
D|----------------------------------------------------|
A|---7----7-7-7-7-------------------------------/6-7--|
E|-0----0---------3-3--0h3-3-0-3-5-5-5-0-5-5--0-------|


Chorus 1
G|------------------------------|
D|------------------------------|
A|------------------------------|
E|-0--0--6-5-5-0-0--0--3-3-2-3--|

G|-------------------|
D|-------------------|
A|---7-------5---6---|
E|-0---7-2-3---5-----|

G|--------------------------------|
D|--------------------------------|
A|--------------------------------|
E|-0-0--0--6-5-5-0-0--0--3-3-2-3--|

G|-------------------------|
D|-------------------------|
A|-------------------------|
E|-0--0--6-5-5-6-5-0-0--0--|

G|-------------------------|
D|-------------------------|
A|-------------------------|
E|--6-5-5-0-0--0--3-3-2-3--|

G|-----------------------|
D|-----------------------|
A|-----------------------|
E|-0--0--6-5-5-6~-2~-0---|


Bass Break 4
G|----------------------------------------------------|
D|----------------------------------------------------|
A|---7----7-7---7-------------------------------/6-7--|
E|-0----0-----0---3-3--0h3-3-0-3-5-5-5-0-5-5--0-------|


Verse 2A (Play x2)
G|--------------------------------|
D|--------------------------------|
A|--------------------------------|
E|-0--0--6-5-5-0-0--0--3-3-2-3----|

G|----------------------------|
D|----------------------------|
A|----------------------------|
E|-0--0--6-5-5-0-2--3-0-3--4--|


Bass Break 5
G|----------------------------------------------------|
D|----------------------------------------------------|
A|---7----7-7---7-------------------------------/6-7--|
E|-0----0-----0---3-3--0h3-3-0-3-5-5-5-0-5-5--0-------|


Verse 2B
G|--------------------------------|
D|--------------------------------|
A|--------------------------------|
E|-0--0--6-5-5-0-0--0--3-3-2-3----|

G|----------------------------|
D|----------------------------|
A|----------------------------|
E|-0--0--6-5-5-0-2--3-0-3--4--|


Bass Break 6
G|----------------------------------------------------|
D|----------------------------------------------------|
A|---7----7-7---7-------------------------------/6-7--|
E|-0----0-----0---3-3--0h3-3-0-3-5-5-5-0-5-5--0-------|


Chorus 2
G|-------------------------------|
D|-------------------------------|
A|-------------------------------|
E|-0--0--6-5-5-0-0--0--3-3-2-----|

G|-------------------|
D|-------------------|
A|---7-------5---6---|
E|-0---7-2-3---5-----|

G|--------------------------------|
D|--------------------------------|
A|--------------------------------|
E|-0-0--0--6-5-5-0-0--0--3-3-2-3--|

G|-------------------------|
D|-------------------------|
A|-------------------------|
E|-0--0--6-5-5-6-5-0-0--0--|

G|-------------------------|
D|-------------------------|
A|-------------------------|
E|--6-5-5-0-0--0--3-3-2-3--|

G|-----------------------|
D|-----------------------|
A|-----------------------|
E|-0--0--6-5-5-6~-2~-0---|


Bridge Intro
G|------------|
D|------------|
A|-7~----7----|
E|-0~----0----|

G|---------------------------------------------|
D|---------------------------------------------|
A|---------------------------------------------|
E|-0-0-0-0--0-0-0--0-3--3-3-3-3-3-3--3-33-3-7--|

G|---------------------------------------------|
D|---------------------------------------------|
A|---------------------------------------------|
E|-0-0-0-0--0-0-0--0-3--3-3-3-3-3-3--3-33-3-7--|


Bridge
G|------------------------------|
D|------------------------------|
A|------------------------------|
E|-0--0-0-0-0-0-0-0--0-7b8r7-5--|

G|------------------------------------|
D|------------------------------------|
A|------------------------------------|
E|-3--3-3-3-3-3-3-3-0-3-0-3-5--5-5/7--|


G|------------------------------|
D|------------------------------|
A|------------------------------|
E|-0--0-0-0-0-0-0-0--0-7b8r7-5--|


G|-------------------------------------|
D|-------------------------------------|
A|-------------------------------------|
E|-3--3-3-0-3-0-3-3-0-3-0-3-5-5-5-7-7--|

G|------------------------------|
D|------------------------------|
A|------------------------------|
E|-0--0-0-0-0-0-0-0--0-7b8r7-5--|

G|-------------------------------------|
D|-------------------------------------|
A|-------------------------------------|
E|-3--3-3-3-3-3-3-3-0-3-0-3-5~----5/7--|

G|------------------------------|
D|------------------------------|
A|------------------------3-----|
E|-0--0-0-0-0-0-0-0--0--3---3~--|

Solo Backing

G|------------|
D|------------|
A|------------|
E|-6-5-5-5-5--|

G|---------------------------------------|
D|---------------------------------------|
A|---------------------------------------|
E|-0-0--0--0-6-5-5-0-6-5-5-0-6-5-5-0-0---|

G|--------------------------------------------|
D|--------------------------------------------|
A|--------------------------------------------|
E|-0-0--0--0-6-5-5-0-6-5-5-0-6-5-5-0-2-2-0-2--|

G|------------------|
D|------------------|
A|------------------|
E|-6-5-5-6-5-5-5-5--|

G|---------------------------------------|
D|---------------------------------------|
A|---------------------------------------|
E|-0-0--0--0-6-5-5-0-6-5-5-0-6-5-5-0-0---|

G|--------------------------------------------|
D|--------------------------------------------|
A|--------------------------------------------|
E|-0-0--0--0-6-5-5-0-6-5-5-0-6-5-5-0-2-2-0-0--|

G|---------------------------------------|
D|---------------------------------------|
A|---------------------------------------|
E|-0-0--0--0-6-5-5-0-6-5-5-0-6-5-5-0-0---|

G|--------------------------------------------|
D|--------------------------------------------|
A|--------------------------------------------|
E|-0-0--0--0-6-5-5-0-6-5-5-0-6-5-5-0-2-2-0-0--|

G|------------------|
D|------------------|
A|------------------|
E|-6-5-5-6-5-5-5-5--|


Solo Backing End
G|---------------------------------------------------------|
D|---------------------------------------------------------|
A|---7----7-7---7------------------------------------------|
E|-0----0-----0---0-3--0-3-0-3-0-5-5-0-5-5-0-2-2-0-2-0-2---|

G|-------------------------------------|
D|-------------------------------------|
A|---7---7---7---7---------------------|
E|-0---0---0---0---0-3--0-3-0-3-0-3-5--|


Post-Solo Bridge (Play x4)
G|-----|--------------------------------|
D|-----|--------------------------------|
A|-----|--------------------------------|
E|-0-3-|-2-0-6-0-7-0-6-0-7-0-6-0-7-0-2--|

G|----
D|----
A|----
E|-0--


Verse 3A (Play x2)
G|-------|
D|-------|
A|-/6-7--|
E|-------|

G|--------------------------------|
D|--------------------------------|
A|--------------------------------|
E|-0--0--6-5-5-0-0--0--3-3-2-3----|

G|----------------------------|
D|----------------------------|
A|----------------------------|
E|-0--0--6-5-5-0-2--3-0-3--4--|


Bass Break 7
G|----------------------------------------------------|
D|----------------------------------------------------|
A|---7----7-7---7-------------------------------/6-7--|
E|-0----0-----0---3-3--0h3-3-0-3-5-5-5-0-5-5--0-------|


Verse 3B
G|--------------------------------|
D|--------------------------------|
A|--------------------------------|
E|-0--0--6-5-5-0-0--0--3-3-2-3----|

G|----------------------------|
D|----------------------------|
A|----------------------------|
E|-0--0--6-5-5-0-2--3-0-3--4--|


Bass Break 8
G|----------------------------------------------------|
D|----------------------------------------------------|
A|---7----7-7---7-------------------------------/6-7--|
E|-0----0-----0---3-3--0h3-3-0-3-5-5-5-0-5-5--0-------|


Chorus 2
G|-------------------------------|
D|-------------------------------|
A|-------------------------------|
E|-0--0--6-5-5-0-0--0--3-3-2-----|

G|-------------------|
D|-------------------|
A|---7-------5---6---|
E|-0---7-2-3---5-----|

G|--------------------------------|
D|--------------------------------|
A|--------------------------------|
E|-0-0--0--6-5-5-0-0--0--3-3-2-3--|

G|-------------------------|
D|-------------------------|
A|-------------------------|
E|-0--0--6-5-5-6-5-0-0--0--|

G|-------------------------|
D|-------------------------|
A|-------------------------|
E|--6-5-5-0-0--0--3-3-2-3--|

G|-----------------------|
D|-----------------------|
A|-----------------------|
E|-0--0--6-5-5-6~-2~-0---|

G|-----------------------------|
D|-----------------------------|
A|-----------------------------|
E|-0-0--6-5-5-0-0--0--3-3-2-3--|

G|-------------------------|
D|-------------------------|
A|-------------------------|
E|-0--0--6-5-5-6-5-0-0--0--|

G|-------------------------|
D|-------------------------|
A|-------------------------|
E|--6-5-5-0-0--0--3-3-2-3--|

G|-----------------------|
D|-----------------------|
A|-----------------------|
E|-0--0--6-5-5-6~-2~-0---|


Outro (Play x7)
G|--------------------------------|
D|--------------------------------|
A|--------------------------------|
E|-2-0-6-0-7-0-6-0-7-0-6-0-7-0-2--|

G|-----------------------------|
D|-----------------------------|
A|-----------------------------|
E|-2-0-6-0-7-0-6-0-7-0-6-0-7~--|

G|-----------------|
D|-----------------|
A|-----------------|
E|-3-2-2-2-2-2-0~--|


Good, done. Some things might not have the exact discrepancies Cliff played
for every little thing this time, but most all of them are there. Hope you
like it.

Key
====
(####) - omit from (play x#) on last playthrough
#b#r# - bend frm an indicated fret to the pitch of the second number, then
return to the fret's original tone
#h# - Hammer-on/Pull-off to/from one fret to another
/# - slide up to indicated fret
            
Submit corrections

comments powered by Disqus
↑ Back to top | Metallica Bass for Battery. Lyrics for acoustic guitar and electric guitar. Tablatures and chords are parodies/interpretations of the original songs. You may use it for private study, scholarship, research or language learning purposes only