>
 >
Transfixion

Transfixion Bass Tabs

Meshuggah - Transfixion chords, tabs, tablatures, lyrics

Guitar lessons | Add/correct | Request | Top 50 tabs Artists:  A B C D E F G H I J K L M N O P Q R S T U V W X Y Z 0-9

Transfixion Bass Tabs – Meshuggah

CD, Sheet music, Poster

Do you like Transfixion? Share with your friends now
Bass TabsBass Tabs v2Tabs
tune down

F#||------------------||-----------------------------|
C#||------------------||*----------------------------|
G#||------------------||-----------------------------|
D#||------------------||*----------------------------|
A#||------------------||---3--0-4--0-0--0-0--3--0-0--|


                                                           
----------------------------|-----------------------------|
----------------------------|-----------------------------|
----------------------------|-----------------------------|
----------------------------|-----------------------------|
--0-0--3--0-4--0-0--0-0--3--|--0-0--0-0--3--0-4--0-0--0-0-|


                                                             
-----------------------------||-----------------------------|
----------------------------*||*----------------------------|
-----------------------------||-----------------------------|
----------------------------*||*----------------------------|
---3--0-0--0-0--3--0-4--0-0--||---3--0-4--0-0--0-0--3--0-0--|


                                                           
----------------------------|-----------------------------|
----------------------------|-----------------------------|
----------------------------|-----------------------------|
----------------------------|-----------------------------|
--0-0--3--0-4--0-0--0-0--3--|--0-0--0-0--3--0-4--0-0--0-0-|


                                                                           
-----------------------------||---------------------|---------------------|
----------------------------*||---------------------|---------------------|
-----------------------------||---------------------|---------------------|
----------------------------*||---------------------|---------------------|
---3--0-0--0-0--3--0-4--0-0--||--1---2--------3-----|-----1---2--------3--|


                                                                          
--------------------|---------------------||-----------------------------|
--------------------|---------------------||*----------------------------|
--------------------|---------------------||-----------------------------|
--------------------|---------------------||*----------------------------|
--------1---2-------|---3--------1---2----||---3--0-4--0-0--0-0--3--0-0--|


                                                           
----------------------------|-----------------------------|
----------------------------|-----------------------------|
----------------------------|-----------------------------|
----------------------------|-----------------------------|
--0-0--3--0-4--0-0--0-0--3--|--0-0--0-0--3--0-4--0-0--0-0-|


                                                               
-----------------------------||-------------------------------|
----------------------------*||*------------------------------|
-----------------------------||-------------------------------|
----------------------------*||*----5----4--------5----4----4-|
---3--0-0--0-0--3--0-4--0-0--||---0----0----0-0-0----0----0---|


                                                            
-----------------------------|-----------------------------|
-----------------------------|-----------------------------|
-----------------------------|-----------------------------|
-----5----4--------5----4----|--4----5----4--------4----3--|
---0----0----0-0-0----0----0-|-----0----0----0-0-0----0----|


                                                              
-------------------------------||----------------------------|
------------------------------*||*---------------------------|
-------------------------------||----------------------------|
----3----4----3--------4------*||*---------------------------|
--0----0----0----0-0-0----0-0--||---3---4--2-2--2-2--3--2-2--|


                                                         
---------------------------|----------------------------|
---------------------------|----------------------------|
---------------------------|----------------------------|
---------------------------|----------------------------|
--2-2--3---4--2-2--2-2--3--|--2-2--2-2--3---4--2-2--2-2-|


                                                           
----------------------------||----------------------------|
---------------------------*||*---------------------------|
----------------------------||----------------------------|
---------------------------*||*---------------------------|
---3--2-2--2-2--3---4--2-2--||---3---4--2-2--2-2--3--2-2--|


                                                         
---------------------------|----------------------------|
---------------------------|----------------------------|
---------------------------|----------------------------|
---------------------------|----------------------------|
--2-2--3---4--2-2--2-2--3--|--2-2--2-2--3---4--2-2--2-2-|


                                                        
----------------------------||-------------------------|
---------------------------*||*------------------------|
----------------------------||-------------------------|
---------------------------*||*------------------------|
---3--2-2--2-2--3---4--2-2--||---1---2---0--0---1---0--|


                                                                             
------------------------|------------------------|-------------------------||
------------------------|------------------------|------------------------*||
------------------------|------------------------|-------------------------||
------------------------|------------------------|------------------------*||
--0---1---1---0--0---1--|---0--0---1---1---0--0--|---1---0--0---1---1--0---||


                                                                       
-----------------------|-----------------------|----------------------|
-----------------------|-----------------------|----------------------|
-----------------------|-----------------------|----------------------|
-----------------------|-----------------------|----------------------|
--2-3---2------3---2---|--2-----3---2---2---2--|---3---2------3---2---|


                                                                       
-----------------------|----------------------|-----------------------|
-----------------------|----------------------|-----------------------|
-----------------------|----------------------|-----------------------|
-----------------------|----------------------|-----------------------|
--2-----3---2---2---2--|---3---2------3---2---|--2-----3---2---2---2--|


                                                                      
----------------------|-----------------------|----------------------|
----------------------|-----------------------|----------------------|
----------------------|-----------------------|----------------------|
----------------------|-----------------------|----------------------|
---3---2------3---2---|--2-----3---2---2---2--|---3---2------3---2---|


                                                                       
-----------------------|----------------------|-----------------------|
-----------------------|----------------------|-----------------------|
-----------------------|----------------------|-----------------------|
-----------------------|----------------------|-----------------------|
--2-----3---2---2---2--|---3---2------3---2---|--2-----3---2---2---2--|


                                                                      
----------------------|-----------------------|----------------------|
----------------------|-----------------------|----------------------|
----------------------|-----------------------|----------------------|
----------------------|-----------------------|----------------------|
---3---2------3---2---|--2-----3---2---2---2--|---3---2------3---2---|


                                                                     
-----------------------|------------------||------------------------|
-----------------------|------------------||*-----------------------|
-----------------------|------------------||------------------------|
-----------------------|------------------||*-----------------------|
--2-----5---4---3---2--|------------------||---2-----3---2---2---2--|


                       2x                                            
-----------------------||-----------------------|-------------------|
----------------------*||-----------------------|-------------------|
-----------------------||-----------------------|-------------------|
----------------------*||-----------------------|-------------------|
---3---2------3---2----||--2-----3---2---2---2--|----1--------------|


                                                         
------------------|------------------|------------------|
------------------|------------------|------------------|
------------------|------------------|------------------|
------------------|------------------|------------------|
------------------|------------------|------------------|


                                                                           
----------------------------||----------------------|---------------------|
----------------------------||*---------------------|---------------------|
----------------------------||----------------------|---------------------|
----------------------------||*--1------------------|----4----------------|
--------------3------0------||----------3------0----|-----------3------0--|


                                                                             
--------------------|-------------------------------||----------------------|
--------------------|------------------------------*||*---------------------|
--------------------|-------------------------------||----------------------|
------1-------------|---------4--------------------*||*--1------------------|
-------------3------|--0-------------3------0-------||----------3------0----|


                                                                            
---------------------|--------------------|-------------------------------||
---------------------|--------------------|------------------------------*||
---------------------|--------------------|-------------------------------||
----4----------------|------1-------------|---------4--------------------*||
-----------3------0--|-------------3------|--0-------------3------0-------||


                     
-------------------||
-------------------||
-------------------||
-------------------||
--0----------------||





Comments


Popular Meshuggah tabs & chords
Future Breed Machine Bass Tabs
Catatonic Transfixions Tabs
Choirs Of Devastation Tabs
Elastic Tabs
Erroneous Manipulations Tabs
Paradoxical Spiral Tabs
Paralyzing Ignorance Tabs
Soul Burn Tabs
Straws Pulled At Random Tabs
Sublevels Tabs


Song lyrics



↑ Back to top | Tablatures and chords are parodies/interpretations of the original songs. You may use it for private study, scholarship, research or language learning purposes only
© 2014 AZChords.com Contact us | Privacy policy | DMCA | Add/correct tabs | Request tabs | Top 50 tabs