>
 >
Soul Burn

Soul Burn Guitar Tabs

Meshuggah - Soul Burn chords, tabs, tablatures, lyrics

Guitar lessons | Add/correct | Request | Top 50 tabs Artists:  A B C D E F G H I J K L M N O P Q R S T U V W X Y Z 0-9

Soul Burn Guitar Tabs – Meshuggah

CD, Sheet music, Poster

Do you like Soul Burn? Share with your friends now
Bass TabsTabsTabs v2
Please listen to CD for correct rythms


A pretty tricky song by Meshuggah... 85% Accurate

GOOD LUCK WITH THE RYTHM...

riff 1 0.00
|----------------|----------------|----------------|----------------|
|----------------|----------------|----------------|----------------|
|----------------|----------------|----------------|----------------|
|22--22--22--22-4|32--22--22--22-4|32--22--22--22-4|32--22--22--22-4|
|22--22--22--2252|12--22--22--2252|32--22--22--2252|12--22--22--2252|
|00--00--00--003-|-0--00--00--003-|10--00--00--003-|-0--00--00--003-|
|pp--pp--pp--pppp|pp--pp--pp--pppp|pp--pp--pp--pppp|pp--pp--pp--pppp|

riff 2 0.23 (right channel guitar)
|----------------|----------------|----------------|---------------|
|----------------|----------------|----------------|---------------|
|----------------|----------------|----------------|---------------|
|226-224-227-22-4|326-227-224-22-4|326-224-227-22-4|326-227-224-22-|
|22--222-225-2252|12--225-222-2252|32--222-225-2252|12--225-222-224|
|00--00--00--003-|-0--00--00--003-|10--00--00--003-|-0--00--00--002|
|pp--pp--pp--pppp|pp--pp--pp--pppp|pp--pp--pp--pppp|pp--pp--pp--pp-|

riff 3 0.45, 0.52 Inner perception...
|---x5--------|-------------|
|-------------|-------------|
|-------------|-------------|
|44-44-44-445-|44-44-44-445-|
|44-44-44-443-|44-44-44-443-|
|22-22-22-22--|22-22-22-22--|
|pp-pp-pp-pp--|pp-pp-pp-pp--|


riff 4 1.16 first solo
|---x5--------|-------------|
|-------------|-------------|
|-------------|-------------|
|33-33-33-334-|33-33-33-334-|
|33-33-33-332-|33-33-33-332-|
|11-11-11-11--|11-11-11-11--|
|pp-pp-pp-pp--|pp-pp-pp-pp--|


1.16 first solo
|------------------------------------------------|
|------------------------------------------------|
|---------------------------4-----8-4---8--5--8--|
|3-4-3---343-1----4-7-4---6---6-7----------------|
|------------------------------------------------|
|------------------------------------------------|

riff 5 + riff 3 1.28 Void of emptiness...
|---x4--------|-------------||4th---------|
|-------------|-------------||ending------|
|-------------|-------------||------------|
|444444444445-|444444444445-||44444444xxxx|
|444444444443-|444444444443-||44444444xxxx|
|22222222222--|22222222222--||22222222xxxx|
|ppppppppppp--|ppppppppppp--||pppppppppppp|


riff 1 + riff 2 1.52 Forever turning...

riff 6 2.18 Burn!!
|---------------------------------------------|
|---------------------------------------------|
|---------------------------------------------|
|-----------------------------------------44--|
|3----3--3--3----3----3----3--3----3--3--322--|
|1----1--1--1----1----1----1--1----1--1--1----|
|p----p--p--p----p----p----p--p----p--p--p----|


riff 7 2.32 (?)
|----------------------------------------|
|----------------------------------------|
|----------------------------------------|
|------------------------------------44--|
|3--33--3--3--33--33--33--3--33--3--322--|
|1--11--1--1--11--11--11--1--11--1--1----|
|p--pp--p--p--pp--pp--pp--p--pp--p--p----|


riff 8 2.45 second solo
|----------------------------------|----------------------------------|----------------------------------|------------------------------------|
|----------------------------------|----------------------------------|----------------------------------|------------------------------------|
|----------------------------------|----------------------------------|----------------------------------|------------------------------------|
|------------------5-5--5--5--5-5--|----------------------------------|----------------------------------|------------------6--6-6-6--6--6--6-|
|4--44--4--4--4--4-3-3--3--3--3-3--|4--44--4--4--4--4-7-7--7--7--7-8--|7--77--7--7--7--8-4-4--4--4--4-8--|7--77--7--7--7--8-4--4-4-4--4--4--4-|
|2--22--2--2--2--2-----------------|2--22--2--2--2--2-5-5--5--5--5-6--|5--55--5--5--5--6-2-2--2--2--2-6--|5--55--5--5--5--6-------------------|
|p--pp--p--p--p--p-p-p--p--p--p----|p--pp--p--p--p--p-p-p--p--p--p----|p--pp--p--p--p--p-p-p--p--p--p----|p--pp--p--p--p--p-p--p-p-p----------|

riff 9 2.59 second solo, play every chord staccato x4, let ring x2
|--------------------------------------------------------------------|
|--------------------------------------------------------------------|
|--------------------------------------------------------------------|
|----5-------8--5--------5-------8-8-----5-------8---5-------55--8---|
|7---3----4--6--3----7---3--4----6-6-7-7-3---4---6---3---77--33--6---|
|5--------2----------5------2--------5-5-----2-----------55----------|
|--------------------------------p-p-p-p-----------------pp--pp------|

riff 1 + riff 2 3.40 This astray mind... ending let ring E5

riff 10 4.07 (right channel guitar)
|-----------|-------------------------------------------------------------|
|-----------|-----------------------------------------10-------------10---|
|-----------|-----------------------------------------7--------------7----|
|...3--33333|----------6---------------4----------------------------------|
|...1--11111|00-00-0000------00-00-00002----00-00-0000-----00-00-0000-----|
|-----------|-------------------------------------------------------------|
|------ppppp|pp-pp-pppp------pp-pp-pppp-----pp-pp-pppp-----pp-pp-pppp-----|

riff 11 4.19 Pieces to me strange...
|---x4-------------------|
|------------------------|
|------------------------|
|------------------------|
|00-00-00000-00-00-00000-|
|------------------------|
|pp-pp-ppppp-pp-pp-ppppp-|

riff 12 4.29 I see it vague...
|-----x2-----------------------------------------|first--|second|
|------------------------------------------------|-time--|-time-|
|------------------------------------------------|-------|------|
|------------------------------------------------|-------|4-----|
|55-55-55-55-55-55-55-55-55-55-55-55-55-55-55-55-|6--6--6|2-----|
|33-33-33-33-33-33-33-33-33-33-33-33-33-33-33-33-|4--4--4|------|
|pp-pp-pp-pp-pp-pp-pp-pp-pp-pp-pp-pp-pp-pp-pp-pp-|-------|------|

riff 7 4.48 Burn!!!!!!
ending
|-------|
|-------|
|-------|
|344222-|
|344222-|
|122000-|
|pppppp-|





Comments


Popular Meshuggah tabs & chords
Neurotica 2 Bass Tabs
The Exquisite Machinery Of Torture Bass Tabs
Combustion Intro Tabs
Corridor Of Chameleons Tabs
New Millennium Cyanide Christ Tabs
Rational Gaze Tabs
Ritual Tabs
Sane Tabs
Soul Burn 1 Tabs
Suffer In Truth Tabs


Song lyrics



↑ Back to top | Tablatures and chords are parodies/interpretations of the original songs. You may use it for private study, scholarship, research or language learning purposes only
© 2014 AZChords.com Contact us | Privacy policy | DMCA | Add/correct tabs | Request tabs | Top 50 tabs