» » »

Combustion Tabs (ver.1)

Artists:  A B C D E F G H I J K L M N O P Q R S T U V W X Y Z # 

Combustion Tabs (ver.1)

Meshuggah
Rating:
1/5 (3 votes)

Hard to play? Try these video lessons and learn fast.
                (Intro)
Hello!

This is the song Combustion By Meshuggah.

The tuning is: Fb


|-------------------------------------------------|
|-------------------------------------------------|
|-------------------------------------------------|
|-------------------------------------------------|
|-------------------------------------------------|
|-12----14----12p10------8p5----------------------|
|----------------------------------3p-------------|
|----10----11-------????-----????-----??----------|


|---------------------------------------|
|---------------------------------------|
|---------------------------------------|
|---------------------------------------|
|---------------------------------------|
|----------------------------------12p--|
|---------------------------------------|
|-0-0-0-0-10p-10p-0-0-0-0-10p-10p-------|


|---------------------------------------|
|---------------------------------------|
|---------------------------------------|
|---------------------------------------|
|---------------------------------------|
|----------------------------------14p--|
|---------------------------------------|
|-0-0-0-0-10p-10p-0-0-0-0-10p-10p-------|


|---------------------------------------|
|---------------------------------------|
|---------------------------------------|
|---------------------------------------|
|---------------------------------------|
|----------------------------------12p--|
|---------------------------------------|
|-0-0-0-0-10p-10p-0-0-0-0-10p-10p-------|


|---------------------------------------|
|---------------------------------------|
|---------------------------------------|
|---------------------------------------|
|---------------------------------------|
|----------------------------------14p--|
|---------------------------------------|
|-0-0-0-0-10p-10p-0-0-0-0-10p-10p-------|


|---------------------------------------|
|---------------------------------------|
|---------------------------------------|
|---------------------------------------|
|---------------------------------------|
|----------------------------------12p--|
|---------------------------------------|
|-0-0-0-0-10p-10p-0-0-0-0-10p-10p-------|


|---------------------------------------------|
|---------------------------------------------|
|---------------------------------------------|
|---------------------------------------------|
|---------------------------------------------|
|----------------------------------14p--------|
|---------------------------------------------|
|-0-0-0-0-10p-10p-0-0-0-0-10p-10p-------12\3--|


|-------------------------------------------------------|
|-------------------------------------------------------|
|-------------------------------------------------------|
|-------------------------------------------------------|
|-------------------------------------------------------|
|-------------------------------------------------------|
|-------------------------------------------------------|
|-8h10-4h6-6h8-8h10-5h7-6h8-7h9-8h10-4h6-5h7-6h8-8h10~~-|


|-----------------------------------------------|
|-----------------------------------------------|
|-----------------------------------------------|
|-----------------------------------------------|
|-----------------------------------------------|
|-----------------------------------------------|
|----------------------------------------8h10~~-|
|--4h6-6h8-7h8-8h10-3h5-3h5-6h8-8h10-6h8--------|
            
Hard to play? Try these video lessons and learn fast. | Correct




comments powered by Disqus
↑ Back to top | Tablatures and chords are parodies/interpretations of the original songs. You may use it for private study, scholarship, research or language learning purposes only