» » »

Seasons In The Sun Tabs (ver.1)

Artists:  A B C D E F G H I J K L M N O P Q R S T U V W X Y Z # 

Seasons In The Sun Tabs (ver.1)

Me First And The Gimme Gimmes
Rating:
0/5 (0 votes)

Hard to play? Try these video lessons and learn fast.
                

distorted guitar
intro
E[----------------------------------------------------------]
B[----------------------------------------------------------]
G[----------------------------------------------------------]
D[----------------------------------------------------------]
A[-0-1-2-0---0-1-2-0---0-1-2-0-4----------------------------]
E[-0-0-0-0---0-0-0-0---0-0-0-0-2----------------------------]

Rhythm Figure 1.
with snare and bass (repeat)
E[----------------------------------------------------------------]
B[----------------------------------------------------------------]
G[----------------------------------------------------------------]
D[----------------------------------------------------------------]
A[----------------------------------------------------------------]
E[-2-2-2-0-2-2-2-0-2-2-2-0-2-2-2-0-4-4-4-0-4-4-4-0-4-4-4-0-4-4-4-0]

E[----------------------------------------------------------------]
B[----------------------------------------------------------------]
G[----------------------------------------------------------------]
D[----------------------------------------------------------------]
A[---------------------------------------4-4-4--------------------]
E[2-2-2-0-2-2-2-0-2-2-2-0-2-2-2-0-4-4-4-0-----4-2-----------------]

Rhythm Figure 2.
with an upward strum
E[-----------------------------------]
B[-7-7-7-7-9-9-9-9-7-7-7-7-----------]
G[-6-6-6-6-8-8-8-8-6-6-6-6-----------]
D[-4-4-4-4-6-6-6-6-4-4-4-4-444444444-]
A[-------------------------444444444-]
E[-------------------------222222222-]

Chorus 1.
B   A#   D#   B

Fill 1.
E[---------]
B[---------]
G[---------]
D[---------]
A[-0-1-2-4-]
E[-0-0-0-2-]

Rhythm Fig. 1.

Rhythm Fig. 2.

Chorus 2.
B   A#   D#   B

A   B   E   A

Fill 1.

Rhythm Fig. 1.

Rhythm Fig. 2.

Chorus 3.
B   A#   D#   B

A   B   E   A

B#   C   F   B#


The original was originally recorded in the 70's.  This is the punk
version of it.

Don't download the original its boring as hell
            
Hard to play? Try these video lessons and learn fast. | Correct




comments powered by Disqus
↑ Back to top | Tablatures and chords are parodies/interpretations of the original songs. You may use it for private study, scholarship, research or language learning purposes only