» » »

Me First And The Gimme Gimmes, Isn't She Lovely Bass tabs (ver.1)

Artists:  A B C D E F G H I J K L M N O P Q R S T U V W X Y Z # 

Isn't She Lovely Bass tabs (ver.1)

Me First And The Gimme Gimmes Tabs
Rating:
0/5 (0 votes)
Isn't She Lovely lessons Tabs too difficult? Try these video lessons and learn fast
                Song name: Isn't she lovely
normal tuning 4strings bass

INTRO
---------|----------||
---------|----------||
-5-5-5-5-|-5-5-5353-||
---------|----------||
Verse                                 before chorus a slide:
-----------|-----------|-----------|-----------||--------|
-----------|-----------|-----------|-----------||--------|
-5-5-5-555-|-7-7-7-777-|-----------|-5-5-5-555-||-/5/----|
-----------|-----------|-3-3-3-333-|-----------||--------|
Chorus
--------|--------|444-222-|--------|--------|--------||
5-5-5555|4-4-4444|--------|2-2-2222|5-5-5555|7-7-7777||
--------|--------|--------|--------|--------|--------||
--------|--------|--------|--------|--------|--------||
Bridge:
play,INTROX4,Verse, then:
---------|---------|-----------|-----------|
-7-7-7-7-|-6-6-6-6-|-10-9-10-9-|12-12-12-12|
---------|---------|-----------|-----------|
---------|---------|-----------|-----------|
then chorus, then play:
----------|
----------|
-5-5-5555-|
----------|
then play verse X2 and this chorus modified:
Chorus modified
------444-222--------------------------------|
5*-4*---------2*-5*-5*-8888 10 10 10 10 12---|
---------------------------------------------|
---------------------------------------------|
there is a last note that is:
------
--5~--
------|
------|
            
Submit corrections

comments powered by Disqus
↑ Back to top | Me First And The Gimme Gimmes Bass for Isn't She Lovely. Lyrics for acoustic guitar and electric guitar. Tablatures and chords are parodies/interpretations of the original songs. You may use it for private study, scholarship, research or language learning purposes only