» » »

Isn't She Lovely Tabs (ver.1)

Artists:  A B C D E F G H I J K L M N O P Q R S T U V W X Y Z # 

Isn't She Lovely Tabs (ver.1)

Me First And The Gimme Gimmes
Rating:
0/5 (0 votes)

Tabs too difficult? Try these video lessons and learn fast.
                isnt she lovely


me first and the gimme gimmes








                                               
e:------------------------------------------------|
B:-7-7-x-7-7--9-9--9--9-9-9--8-8--8-8--7-7--7-7-7-|
G:-7-7-x-7-7--9-9--9--9-9-9--7-7--7-7--7-7--7-7-7-|
D:-7-7-x-7-7--9-9--9--9-9-9--7-7--7-7--7-7--7-7-7-|
A:------------------------------------------------|
E:------------------------------------------------|

  verse
e:------------------------------------------------|
B:-7-7-x-7-7--9-9--9--9-9-9--8-8--8-8--7-7--7-7-7-|
G:-7-7-x-7-7--9-9--9--9-9-9--7-7--7-7--7-7--7-7-7-|
D:-7-7-x-7-7--9-9--9--9-9-9--7-7--7-7--7-7--7-7-7-|
A:------------------------------------------------|
E:------------------------------------------------|

e:-----------------------------------------------------|
B:-7-7-x-7-7--9-9--9--9-9-9--8-8--8-8--7-7--7-7-7--7-7-|
G:-7-7-x-7-7--9-9--9--9-9-9--7-7--7-7--7-7--7-7-7--7-7-|
D:-7-7-x-7-7--9-9--9--9-9-9--7-7--7-7--7-7--7-7-7--7-7-|
A:------------------------------------------5-5-5--5-5-|
E:-----------------------------------------------------|

e:------------------------------------------------------------|
B:------------------------------------------------------------|
G:--------------------------------------------7---------------|
D:-5--4---9-7--2---2-2-2--5--5-5-5--7--7-7-7--7---------------|
A:-5--4---9-7--2---2-2-2--5--5-5-5--7--7-7-7--5---------------|
E:-3--2---7-5--0---0-0-0--3--3-3-3--5--5-5-5------------------|

  verse
e:------------------------------------------------|
B:-7-7-x-7-7--9-9--9--9-9-9--8-8--8-8--7-7--7-7-7-|
G:-7-7-x-7-7--9-9--9--9-9-9--7-7--7-7--7-7--7-7-7-|
D:-7-7-x-7-7--9-9--9--9-9-9--7-7--7-7--7-7--7-7-7-|
A:------------------------------------------------|
E:------------------------------------------------|

e:-----------------------------------------------------|
B:-7-7-x-7-7--9-9--9--9-9-9--8-8--8-8--7-7--7-7-7--7-7-|
G:-7-7-x-7-7--9-9--9--9-9-9--7-7--7-7--7-7--7-7-7--7-7-|
D:-7-7-x-7-7--9-9--9--9-9-9--7-7--7-7--7-7--7-7-7--7-7-|
A:------------------------------------------5-5-5--5-5-|
E:-----------------------------------------------------|

e:------------------------------------------------------------|
B:------------------------------------------------------------|
G:--------------------------------------------7---------------|
D:-5--4---9-7--2---2-2-2--5--5-5-5--7--7-7-7--7---------------|
A:-5--4---9-7--2---2-2-2--5--5-5-5--7--7-7-7--5---------------|
E:-3--2---7-5--0---0-0-0--3--3-3-3--5--5-5-5------------------|

  gt1
e:------------------------------------------------------------|
B:------------------------------------------------------------|
G:------------------------------------------------------------|
D:-7---6----5---4----7---6----5---4----7---6----5---4---------|
A:------------------------------------------------------------|
E:------------------------------------------------------------|

  gt2
e:------------------------------------------------|
B:-7-7-x-7-7--9-9--9--9-9-9--8-8--8-8--7-7--7-7-7-|
G:-7-7-x-7-7--9-9--9--9-9-9--7-7--7-7--7-7--7-7-7-|
D:-7-7-x-7-7--9-9--9--9-9-9--7-7--7-7--7-7--7-7-7-|
A:------------------------------------------------|
E:------------------------------------------------|

                                                           pick slide
e:-------------------------------------------------------------------|
B:-------------------------------------------------------------------|
G:-4--3---------------------------------------7--7-7-7-7-------------|
D:-5--4---9-7--2---2-2-2--5--5-5-5--7--7-7-7--7--7-7-7-7-------------|
A:-5--4---9-7--2---2-2-2--5--5-5-5--7--7-7-7--5--5-5-5-5--x/---------|
E:-3--2---7-5--0---0-0-0--3--3-3-3--5--5-5-5--------------x/---------|

   isnt she lovely...
e:------------------------------------------------------------|
B:------------------------------------------------------------|
G:-7--7-7-7-7-7--9--9-9-9-9-9-9--------------------7--7-7-7-7-|
D:-7--7-7-7-7-7--9--9-9-9-9-9-9--5--5-5-5-5-5-5-5--7--7-7-7-7-|
A:-5--5-5-5-5-5--7--7-7-7-7-7-7--5--5-5-5-5-5-5-5--5--5-5-5-5-|
E:-------------------------------3--3-3-3-3-3-3-3-------------|

e:----------------------------------------------------------------------|
B:----------------------------------------------------------------------|
G:-------------------------------------------------------5-5-5-5-5-5--7-|
D:-5--4---9-7--2---2-2-2--5--5-5-5-5-5-5---8--8-8-8-8-8--5-5-5-5-5-5--7-|
A:-5--4---x-x--2---2-2-2--5--5-5-5-5-5-5---8--8-8-8-8-8--3-3-3-3-3-3--5-|
E:-3--2---7-5--0---0-0-0--3--3-3-3-3-3-3---6--6-6-6-6-6-----------------|

                                                    slide 
e:-------------------------------------------0----------------|
B:-3-3-x-3-3--3-3-3--3-3--3-3--3-3-3---3-----3------x/--------|
G:-2-2-x-2-2--1-1-1--1-1--0-0--0-0-0---0-----2------x/--------|
D:-0-0---0-0--0-0-0--0-0--0-0--0-0-0---0-----0------x/--------|
A:------------------------------------------------------------|
E:------------------------------------------------------------|


hillo son mex

26/03/10
            
Tabs too difficult? Try these video lessons and learn fast.


comments powered by Disqus
↑ Back to top | Tablatures and chords are parodies/interpretations of the original songs. You may use it for private study, scholarship, research or language learning purposes only