>
 >
I Believe I Can Fly 1

I Believe I Can Fly 1 Guitar Tabs

Me First And The Gimme Gimmes - I Believe I Can Fly 1 chords, tabs, tablatures, lyrics

Guitar lessons | Add/correct | Request | Top 50 tabs Artists:  A B C D E F G H I J K L M N O P Q R S T U V W X Y Z 0-9

I Believe I Can Fly 1 Guitar Tabs – Me First And The Gimme Gimmes

CD, Sheet music, Poster

Do you like I Believe I Can Fly 1? Share with your friends now
ChordsDrum TabsTabsTabs v2Ukulele
Me First And The Gimme Gimmes - I Believe I Can Fly

Intro
e|--8-8-8-8-8-8--------7-7-7-7-7-7--------|
B|--8-8-8-8-8-8-(etc)--8-8-8-8-8-8-(etc)--| as many times as needed
B|--9-9-9-9-9-9--------9-9-9-9-9-9--------|
D|----------------------------------------|
A|----------------------------------------|
E|----------------------------------------|

Chorus
e|----------------------------------------------------------------------------|
B|----------------------------------------------------------------------------|
G|--5555555555555555-----------------------7777777777777777-------------------|
D|--5555555555555555-777777777777777777777-7777777777777777-5555555555555555--|
A|--3333333333333333-777777777777777777777-5555555555555555-5555555555555555--|x1
E|-------------------555555555555555555555------------------3333333333333333--|

e|-----------------------------------------------------------------------|
B|-----------------------------------------------------------------------|
G|-----------------------------------------------------------------------|
D|--7777777777777777-6666666666666666-5555555555555555-6666666666666666--|
A|--7777777777777777-6666666666666666-5555555555555555-6666666666666666--|x1
E|--5555555555555555-4444444444444444-3333333333333333-4444444444444444--|

Pre Verse
e|--------------------|
B|--------------------|
G|--------------------|
D|--7~--7~--7~--7--6--|
A|--7~--7~--7~--7--6--|x1
E|--5~--5~--5~--5--4--|

Verse
e|--3~-----5~--|
B|--5~-----7~--|
G|--5~-----7~--|
D|--5~-----7~--|
A|--3~-----5~--|x4
E|--3~-----5~--|

Pre Chorus
e|--------------------------------------------------------------------|
B|--------------------------------------------------------------------|
G|-----------------------------------------5~---5-5-5-5-5-5-----------|
D|--7~---7-7-7-7-7---6~----6-6-6-6-6-6-6---5~---5-5-5-5-5-5---3~---3--|
A|--7~---7-7-7-7-7---6~----6-6-6-6-6-6-6---3~---3-3-3-3-3-3---3~---3--|x1
E|--5~---5-5-5-5-5---4~----4-4-4-4-4-4-4----------------------1~---1--|

|Chorus|

Bridge
e|-------------------------------------------------------------------------|
B|-------------------------------------------------------------------------|
G|-------------------7777777777777777--5555555555555555--------------------|
D|-7777777777777777--7777777777777777--5555555555555555--5555555555555555--|
A|-7777777777777777--5555555555555555--3333333333333333--5555555555555555--|x1
E|-5555555555555555--------------------------------------3333333333333333--|

Pre Chorus
e|-----------------------------------------------------------------|
B|-----------------------------------------------------------------|
G|--------------------------------------6~----6--6--6--6-----------|
D|--8~---8--8--8--8---7~---7--7--7--7---6~----6--6--6--6---4~---4--|
A|--8~---8--8--8--8---7~---7--7--7--7---4~----4--4--4--4---4~---4--|x1
E|--6~---6--6--6--6---5~---5--5--5--5----------------------2~---2--|
 
Chorus
e|-----------------------------------------------------------------------|
B|-----------------------------------------------------------------------|
G|--6666666666666666-----------------8888888888888888--------------------|
D|--6666666666666666--8888888888888--8888888888888888--6666666666666666--|
A|--4444444444444444--8888888888888--6666666666666666--6666666666666666--|x1
E|--------------------6666666666666--------------------4444444444444444--|

e|-------------------------------------------------------------------------|
B|-------------------------------------------------------------------------|
G|-------------------------------------------------------------------------|
D|-8888888888888888--7777777777777777--6666666666666666--7777777777777777--|
A|-8888888888888888--7777777777777777--6666666666666666--7777777777777777--|x1
E|-6666666666666666--5555555555555555--4444444444444444--5555555555555555--|

Outro
e|------------------------------------------------------------------|
B|------------------------------------------------------------------|
G|--------------------------------------8888888888888888--6-----6/--|
D|--8888888888888888--6666666666666666--8888888888888888--6-----6/--|
A|--8888888888888888--6666666666666666--6666666666666666--4~----4/--|
E|--6666666666666666--4444444444444444------------------------------|





Comments


Popular Me First And The Gimme Gimmes tabs & chords
Build Me Up Buttercup 1 Bass Tabs
Coming To America Bass Tabs
Danny's Song Bass Tabs
Don't Cry For Me Argentina Bass Tabs
Puff The Magic Dragon Bass Tabs
Sloop John B Bass Tabs
Nothin Compares To You Tabs
Over The Rainbow 1 Tabs
Nothing Compares To You Ukulele
Rocket Man Ukulele


Song lyrics



↑ Back to top | Tablatures and chords are parodies/interpretations of the original songs. You may use it for private study, scholarship, research or language learning purposes only
© 2014 AZChords.com Contact us | Privacy policy | DMCA | Add/correct tabs | Request tabs | Top 50 tabs