» » »

Me First And The Gimme Gimmes, Hats Off To Larry Bass tabs (ver.1)

Artists:  A B C D E F G H I J K L M N O P Q R S T U V W X Y Z # 

Hats Off To Larry Bass tabs (ver.1)

Me First And The Gimme Gimmes Tabs
 Rating:
4/5 (4 votes)
Hats Off To Larry lessons Tabs too difficult? Try these video lessons and learn fast
1
                Intro
G-----------------|-----------------|--------------------------------|
D-----------------|-----------------|--------------------------------|
A-2---0-----------|-2---0-----------|--------------------------------|
E---------3---2---|---------3---2---|----------------2---2---2-2-2-2-|

Chorus "Hats off to larry..."
G-------------------------------------------------------------------|
D---------------------------------------------------9-9-9-9-9-9-9-9-|
A-2-2-2-2-2-2-2-2--6-6-6-6-6-6-6-6--7-7-7-7-7-7-7-7-----------------|
E-------------------------------------------------------------------|

"He Told you lies..."              "cry cry cry" 
G----------------------------------|---------|
D----------------------------------|---------|
A---------6-6-6-6--7-7-7-7-7-7-7-7-|---------|
E-7-7-7-7--------------------------|---------|

Bridge ("Now that Larry's said goodbye to you"
G-----------------------------------|
D-----------------------------------|
A---------9-9-9-9------7-7----------|
E-7-7-7-7----------7-7------7-7-7-7-|

Verse 2 (I Know this may sound strange...")
G-----------------------------------------------------------------------|
D-----------------------------------------------------------------------|
A-------------------------------------------------------5-5-5-5-4-4-4-4-|
E-2---------------3------------------5----------------------------------|

Chorus "Hats off to larry..."
G-------------------------------------------------------------------|
D---------------------------------------------------9-9-9-9-9-9-9-9-|
A-2-2-2-2-2-2-2-2--6-6-6-6-6-6-6-6--7-7-7-7-7-7-7-7-----------------|
E-------------------------------------------------------------------|

"You Told me lies..."              "cry cry cry" 
G----------------------------------|---------|
D----------------------------------|---------|
A---------6-6-6-6--7-7-7-7-7-7-7-7-|---------|
E-7-7-7-7--------------------------|---------|

Bridge ("Now that Larry's said goodbye to you"
G-----------------------------------|
D-----------------------------------|
A---------9-9-9-9------7-7----------|
E-7-7-7-7----------7-7------7-7-7-7-|

Solo                              x2
G-----------------------------------|-----------------|
D-----------------------------------|-----------------|
A-2-2-2-2--0-0-0-0------------------|-----------------|
E------------------3-3-3-3--2-2-2-2-|-2---2---2-2-2-2-|

Chorus "Hats off to larry..."
G-------------------------------------------------------------------|
D---------------------------------------------------9-9-9-9-9-9-9-9-|
A-2-2-2-2-2-2-2-2--6-6-6-6-6-6-6-6--7-7-7-7-7-7-7-7-----------------|
E-------------------------------------------------------------------|

"You Told me lies..."              "cry cry cry" 
G----------------------------------|---------|
D----------------------------------|---------|
A---------6-6-6-6--7-7-7-7-7-7-7-7-|---------|
E-7-7-7-7--------------------------|---------|

Outro                              x3
G-----------------|------------------|--------------|
D-----------------|------------------|--------------|
A---------9-9-9-9-|-----7-7--9-9-9-9-|------7-7-----|
E-7-7-7-7---------|-7-7--------------|-7-7------7-7-|
            
Submit corrections

comments powered by Disqus
↑ Back to top | Me First And The Gimme Gimmes Bass for Hats Off To Larry. Lyrics for acoustic guitar and electric guitar. 1 Tablatures and chords are parodies/interpretations of the original songs. You may use it for private study, scholarship, research or language learning purposes only