>
 >
Argue

Argue Guitar Tabs

Matchbox 20 - Argue chords, tabs, tablatures, lyrics

Guitar lessons | Add/correct | Request | Top 50 tabs Artists:  A B C D E F G H I J K L M N O P Q R S T U V W X Y Z 0-9

Argue Guitar Tabs – Matchbox 20

CD, Sheet music, Poster

Do you like Argue? Share with your friends now
ChordsTabsTabs v2

Intro:                                       Verse:
                                             |------P.M.------                                                            
E------0--------------------------------------------------------2--2----
B---------3-----------------------------------------------------3--3----
G------------2-----------------5-----4--------------------------2--2----
D---0-----------------2--4--5-----5-----5-----0--0--0--0--0--0--0--0----
A------------------2-----------------------5----------------------------
E---------------0-------------------------------------------------------
                                                                        

  |----P.M.---------                                                                    
E---------------------3--3--------3-----2-----0-----0--0--0--0--0--0----
B---------------------3--3--------3-----3-----3-----0--0--0--0--0--0----
G---------------------0--0--------------------------0--0--0--0--0--0----
D---------------------2--2--------------------------0--0--2--2--2--2----
A---3--3--3--3--3--3--3--3--------------------------2--2--3--3--3--3----
E---------------------------3--3-----0-----0-----0--0--0--0--0--0--0----
                                                                        

Leads Into Chorus:                                 |------P.M.-----|
E------------0--------------0--------------0--------3-3-3-3-3-3-3-3-----
B------2--------2-----0--------0-----3--------3-----3-3-3-3-3-3-3-3-----
G---------3--------------2--------------0-----------0-0-0-0-0-0-0-0-----
D---0-----------------------------------------------2-2-2-2-2-2-2-2-----
A------------------0--------------3-----------------3-3-3-3-3-3-3-3-----
E-----------------------------------------------------------------------
                                                                        

Chorus:
E--2--2--2--3--3--3----
B--3--3--3--3--3--3----
G--2--2--2--0--0--0----
D--0--0--0--0--0--0----
A-----------2--2--2----
E----------------------


                               
E---3--3--3--3--3--3-----------0--------------0-----------0--------2----
B---3--3--3--3--3--3-----2--------2--------3-----------3-----------3----
G---0--0--0--0--0--0--------3-----------0-----------0--------------2----
D---2--2--2--0--0--0--0--------------------------------------------0----
A---3--3--3--2--2--2-----------------------------3-----------3--3-------
E------------3--3--3-----------------3----------------------------------
                                                                        

                              
E---0h2p0-----------2------------------------0--------------------------
B----------2--------3------3--------------3-----3-----------------------
G-------------------2--0h2-----2-------0-----------0--------------------
D-------------------0-------------3/4-----------------------------------
A-------------3--3------------------------------------------------------
E-----------------------------------------------------------------------
                                                                        



==                       TABLATURE EXPLANATION                        ==

----------                ----------                ----t---
----5h8--- Hammeron       ----(8)--- Ghost          ----6--- Tap
----------                ---------- Note           --------
----5p8--- Pulloff        ----------                --------

----------                ----------                -----p--
----5/8--- Slide Up       -----x---- Dead           -----7-- Pop
----------                ---------- Note           --s-----
----5\8--- Slide Down     ----------                --5----- Slap 

----------                ||------|| Repeat         --------
----5~~~-- Vibrato        ||*----*||                ---5^--- Bend
----------                ||*----*||                --------
----------                ||------||                --------

----------                ----------                --------
-4:------- Time           ----------                --------
-4:------- Signature      ----------                --------
----------                ----------                --------

Rhythm:
  w = whole note            W = dotted whole
  h = half note             H = dotted half
  q = quarter note          Q = dotted quarter
  e = eighth note           E = dotted eighth
  s = sixteenth note        S = dotted sixteenth
  t = 32nd note             T = dotted 32nd
  x = 64th note             X = dotted 64th
  ^ = triplet

==               Created with BUCKET O' TAB for Windows               ==





Comments


Popular Matchbox 20 tabs & chords
You And I And I Bass Tabs
Hand Me Down Chords
If You're Gone Chords
If Your Gone Chords
Rest Stop 2 Chords
Crutch Tabs
Hand Me Down 2 Tabs
Hang Tabs
Real World Tabs
Unwell 4 Tabs


Song lyrics



↑ Back to top | Tablatures and chords are parodies/interpretations of the original songs. You may use it for private study, scholarship, research or language learning purposes only
© 2014 AZChords.com Contact us | Privacy policy | DMCA | Add/correct tabs | Request tabs | Top 50 tabs