» » »

Matchbox 20, Unwell Tabs (ver.1)

Artists:  A B C D E F G H I J K L M N O P Q R S T U V W X Y Z # 

Unwell Tabs (ver.1)

Matchbox 20 Tabs
Rating:
0/5 (0 votes)
Unwell lessons Tabs too difficult? Try these video lessons and learn fast
                ------


This song is in regular tuning, no need for capo's.

Intro:
------
Banjo(?) written for guitar:

   A                                 D
e|-------5--7--5---------------5--7--5--5--5------|
B|-5-/7--5--7--5--7-\5---5-/7--5--7--5------------|
G|-4-/6-----------6-\4---4-/6---------------------|
D|------------------------------------------------|
A|------------------------------------------------|
E|------------------------------------------------|


   F#m                                    E
e|-------5--7--5---------------5--7--5----4------|
B|-5-/7--5--7--5--7-\5---5-/7--5--7--5----5------|
G|-4-/6-----------6-\4---4-/6--------------------|
D|-----------------------------------------------|
A|-----------------------------------------------|
E|-----------------------------------------------|

   A                                 D
e|-------5--7--5---------------5--7--5---7-5----------------5--7--5--|
B|-5-/7--5--7--5--7-\5---5-/7--5--7--5---7-5---7--5---5-/7--5--7--5--|
G|-4-/6-----------6-\4---4-/6------------------6--4---4-/6-----------|
D|-------------------------------------------------------------------|
A|-------------------------------------------------------------------|
E|-------------------------------------------------------------------|

   F#m                                  E
e|-------5--7--5---------------5--7--5--4-----------------|
B|-5-/7--5--7--5--7-\5---5-/7--5--7--5--5--5---5/7---7/9--|
G|-4-/6-----------6-\4---4-/6----------------4-----4------|
D|--------------------------------------------------------|
A|--------------------------------------------------------|
E|--------------------------------------------------------|



Chords:
-------
A   x02220
E   022100
D   xx0232
F#m 244222
C#m x46654


Verse:
------
D E A F#m
D E F#m
D E A F#m
D E

Pre-chorus:
-----------
C#m D A E
C#m D A E

Chorus:
-------
A D F#m E

Bridge:
-------
D F#m
D F#m
D F#m
E


------

All day staring at the ceiling      [Verse]
...

Hold on      [Pre-chorus]
Feeling like I'm headed...


But I'm not crazy, I'm just a little unwell [Chorus]
...
I'm not crazy, I'm just a little impaired [Chorus]
...

be...me      [Verse]

I'm talking to myself in public
...

With me      [Pre-chorus]
Out of all the hours thinking
...

But I'm not crazy, I'm just a little unwell  [Chorus]
...
I'm not crazy, I'm just a little impaired [Chorus]
...

[Bridge]
I've been talking in my sleep
...


But I'm not crazy, I'm just a little unwell [Chorus]
...
I'm not crazy, I'm just a little impaired [Chorus]
...

Yeah, how I used to be    [Chorus+2nd half of intro]
...




Copyright (c) 2001 by OLGA, Inc.
            
Submit corrections

comments powered by Disqus
↑ Back to top | Matchbox 20 Tabs for Unwell. Lyrics for acoustic guitar and electric guitar. Tablatures and chords are parodies/interpretations of the original songs. You may use it for private study, scholarship, research or language learning purposes only