» » »

Argue Tabs (ver.2)

Artists:  A B C D E F G H I J K L M N O P Q R S T U V W X Y Z # 

Argue Tabs (ver.2)

Matchbox 20
Rating:
0/5 (0 votes)

Hard to play? Try these video lessons and learn fast.
                intro:
1st guitar
--9---------------7---------------9---------------7-------------
7---7---------4-5---5-----5-----7---7---------4-5---5---5-------
5-----5---2-----3-----3-5---5~~~5-----5---2-----3-----3-5-5-----
--------0---0-----------3---------------0---0-----------3---3~~~


2nd guitar
--------------------------------
----------------1---------------
2-------2-------0---------------	<2x
0-------2-------2---------------
--------0-------3-------2-------
------------------------3-------

Otto done a good job on the rest
            
Hard to play? Try these video lessons and learn fast. | Correct




comments powered by Disqus
↑ Back to top | Tablatures and chords are parodies/interpretations of the original songs. You may use it for private study, scholarship, research or language learning purposes only