>
 >
The Greatest Fall

The Greatest Fall Bass Tabs

Matchbook Romance - The Greatest Fall chords, tabs, tablatures, lyrics

Guitar lessons | Add/correct | Request | Top 50 tabs Artists:  A B C D E F G H I J K L M N O P Q R S T U V W X Y Z 0-9

The Greatest Fall Bass Tabs – Matchbook Romance

CD, Sheet music, Poster

Do you like The Greatest Fall? Share with your friends now
Bass TabsBass Tabs v2Bass Tabs v3TabsTabs v2
********************************************************************
	MATCHBOOK ROMANCE - THE GREATEST FALL
********************************************************************
let me start by saying this band rocks, this bassist rocks, he is the
most influential bassist i have ever seen live, he beats thursday, thrice, 
coheed and cambria, Fat mike, Millencolin etc... He is insane, he slaps the hell outta 
his bass and is so into his music, he was rocking out in front of the crowd
when i saw him, definatly check him out live, hes soo good, no one can tab exactly 
what he plays, he does a lottta slaps and pops, and POWER CHORDS! he loves em
so ill do my best...K, Im not shure if there are 2 or more versions, the one i have
there are little fill thingys in the chorus,they r octive *** on guitar, but i liek playing them on bass, so i tabbed it,
you will hear it, dont play the fills if u dont want too, rate my tab please and thank you 


standard tuning ( E A D G )

Intro x1(the //// means a long slide)
G|-------------------------------------------|
D|-------------------------------------------|
A|-------------------------------------------|
E|-----12h14~-------12//////p0~--------------|

1ST VERSEx1
G|-------------------------------------------------------------------------|
D|-------------------------------------------------------------------------|
A|--22x-22x--44x-44x--22x-22x-------22x-22x--44x-44x--22x-22x--------------|
E|----------------------------55~~-----------------------------------5/0~~-|

1ST CHORUS PT 1x1
G|-------------------------------------------|
D|-------------------------------------------|
A|---------/34~---------------------------4--|
E|-0~-----------555555-555555-55555555555----|
1ST CHORUS PT 2x1
G|---------10p9h12---------10p9h12--------10p9h12--------10p9h12----|
D|------------------------------------------------------------------|
A|-----------------44444444-------00000000--------0000000--------4~-|
E|-00000000---------------------------------------------------------|

Second VERSEx1
G|--------------------------------------------------------------------------------------------|
D|-------------------------1224422--------77664p2-------1224422-----------------1224----------|
A|-22222222----------222222--------4444444-------222222--------------4h5p0-22222-----4~-2~-0~-|
E|----------55555555-------------------------------------------555555-------------------------|

2ND CHORUS PT ONE x1
G|---------10p9h12---------10p9h12--------10p9h12--------10p9h12----|
D|------------------------------------------------------------------|
A|-----------------44444444-------00000000--------0000000-----------|
E|-00000000---------------------------------------------------------|
2ND CHORUS PT 2x1
G|---------10p9h12---------10p9h12--------10p9h12------------------|
D|-----------------------------------------------------------------|
A|-----------------44444444-------00000000--------0000000000-22222-|
E|-00000000--------------------------------------------------------|

BREAKDOWN PT 1x1
G|---------------------------------------------------------------------|
D|---------------------------------------------------------------------|
A|-4x4x4x4x4x4x4x4x------------------4x4x4x4x4x4x4x4x------------------|
E|-----------------5x5x5x5x5x5x5x5x5x----------------0x0x0x0x-2x2x2x2x-|
BREAKDOWN PART 2x1
G|----------------------------------------------------------------------|
D|----------------------------------------------------------------------|
A|-4x4x4x4x4x4x4x4x------------------4x4x4x4x4x4x4x4x-7x7x7x7x----------|
E|-----------------5x5x5x5x5x5x5x5x5x--------------------------2x2x2x2x-|

BASS SOLO PARtx2
G|------------------------------------------------|
D|------------------------------------------------|
A|------------44444444444-------------------------|
E|-00000000000-----------5555555555555555555-777/-|

BUILD UPx1
G|------------------------|
D|------------------------|
A|-------4~~~~~-----------|
E|-0~~~~~------5~~~~7777x-|

3rd CHORUS PART ONEx1
G|---------10p9h12---------10p9h12--------10p9h12--------10p9h12----|
D|------------------------------------------------------------------|
A|-----------------44444444-------00000000--------0000000-----------|
E|-00000000---------------------------------------------------------|
PART TWO x1
G|---------10p9h12---------10p9h12--------10p9h12---------------|
D|--------------------------------------------------------------|
A|-----------------44444444-------00000000--------0000000000000-|
E|-00000000-----------------------------------------------------|

ENDING x1
G|------------------------------------------------|
D|------------------------------------------------|
A|-4x4x4x4x4x4x4x4x-2x2x2x2x2x2x2x2x--------------|
E|------------------------------------5~---/7--0~-|

AND YOUR DONE!





Comments


Popular Matchbook Romance tabs & chords
Monsters 2 Bass Tabs
Singing Bridges Chords
Story Of A Girl Cover Chords
Lovers And Liars Tabs
The Greatest Fall Tabs
The Greatest Fall (Of All Time) Tabs
Tiger Lily 1 Tabs
Tiger Lily 2 Tabs
Hollywood And Vine Ukulele
You Can Run But Well Find You Ukulele


Song lyrics



↑ Back to top | Tablatures and chords are parodies/interpretations of the original songs. You may use it for private study, scholarship, research or language learning purposes only
© 2014 AZChords.com Contact us | Privacy policy | DMCA | Add/correct tabs | Request tabs | Top 50 tabs