>
 >
The Greatest Fall

The Greatest Fall Guitar Tabs

Matchbook Romance - The Greatest Fall chords, tabs, tablatures, lyrics

Guitar lessons | Add/correct | Request | Top 50 tabs Artists:  A B C D E F G H I J K L M N O P Q R S T U V W X Y Z 0-9

The Greatest Fall Guitar Tabs – Matchbook Romance

CD, Sheet music, Poster

Do you like The Greatest Fall? Share with your friends now
Bass TabsBass Tabs v2Bass Tabs v3TabsTabs v2
Matchbook Romance -- The Greatest Fall@
key				      @
---				      @
~ - let ring			      @
h - hammer on			      @
p - pull off			      @
/ - slide			      @
NOTES
-----
This song is sweeeeeet.  Matchbook Romance are a great band.
This tab is/should be around 95% correct at LEAST.
The singer in a video i saw plays GTR 2 but I sing and 
play GTR 1, so i guess it doesnt matter.  Do what u want.

InTRo				      @
GTR 1
e|---0--0---0--0||
b|--4--4---4--4-||
g|-4--4---4--4--||
d|2------2------||
a|--------------||
e|--------------||  x12

GTR 2
e|--------------------4--||
b|10p9--5h7--5h7-7\4-5-5-||
g|-----------------------||
d|-----------------------||
a|-----------------------||
e|-----------------------||

GTR 2

e|------------------------------------------||
b|---7----7---7-7-7-7----9----9---9-9-9-9---||
g|-9---9---9---9-9-9---9---9---9---9-9-9----||
d|------------------------------------------||
a|------------------------------------------||
e|------------------------------------------|| 4x

PRECHORUS
GTR 2

e|--------------------------||
b|--7-----7-----7-----------||
g|-9-9~--9-9~--9-9~---9-9~--||
d|--------------------------||
a|--------------------------||
e|--------------------------||
CHORUS
GTR 1 -- ill give u the BASIC pattern, u can figure out
exactly how its played.


e|--------------------------------------------------||
b|--------------------------------------------------||
g|-------6~-----2222-2-2-2-----2222-2-2-4-----------||
d|2~-----6~-----2222-2-2-2-----2222-2-2-4-----------||
a|2~-----4~-----0000-0-0-0-----0000-0-0-2-----------||
e|0~------------------------------------------------||


e|-------------------------------------------------------------------||
b|-------------------------------------------------------------------||
g|----------------6666-6-6-6-----2222-2-2-2-----2222-2-2/4-----------||
d|2222-2-2-2------6666-6-6-6-----2222-2-2-2-----2222-2-2/4-----------||
a|2222-2-2-2------4444-4-4-4-----0000-0-0-0-----0000-0-0/2-----------||
e|0000-0-0-0---------------------------------------------------------||

GTR 2

e|---------|
b|---------|
g|-9\8/11--|
d|-x\x/x---|
a|-7\6/9---|
e|---------|
VERSE 2
listen to the song to see where everything goes -- its all here.

GTR 2

e|--------------------------|
b|--------------------------|
g|--9/8-8/9-9-9/8-----9/8-8-|
d|----------------9-9-------|
a|--------------------------|
e|--------------------------|

GTR 1
e|-----------------------|
b|-----------------------|
g|--6~\2~----------------|
d|--x--x-----------------|
a|--4~\0~----------------|
e|-----------------------| and go right into the PM chords


e|----------------------|
b|----------------------|
g|--4--2--4--6--4--2--4-|
d|--4--2--4--6--4--2--4-|
a|--2--0--2--4--2--0--2-|
e|----------------------|
p.m.*--*--*--*--*--*--*-
GTR 2

e|------------------------------------------------|
g|------------------------------------------------|
b|--9--8-9--9--8-9--9--8-9--9--8-9--9-8-9--11--8-9|
g|--9--9-9--9--9-9--9--9-9--9--9-9--9-9-9--9---9-9|
a|------------------------------------------------|
e|------------------------------------------------|

e|----------------------------------|
b|----------------------------------|
g|--9--9--9--9-8-9--9--9--9-8-8-----|
d|--9--9--9--9-9-9--9--9--9-9-9-----|
a|----------------------------------|
e|----------------------------------|

e|------------------------------------|
b|------------------------------------|
g|--9--9--9--9-8-9--9--9--9-8-9-8-----|
d|--9--9--9--9-9-9--9--9--9-9-9-9-----|
a|------------------------------------|
e|------------------------------------|

e|-----------------------------------|
b|-----------------------------------|
g|--9--9--9--9-8-9--9--9--9-8-9------|
d|--9--9--9--9-9-9--9--9--9-9-9------|
a|-----------------------------------|
e|-----------------------------------|

e|---------------------------|
b|---------------------------|
g|--9--9--9--9-8-8--9--8-9-8-|
d|--9--9--9--9-9-9--9--9-9-9-|
a|---------------------------|
e|---------------------------|

Then GTR 1 plays the PRECHORUS

and GTR 2 plays at the same time 
e|-0--0-0--0--0-0--0--0--0~--||
b|---4-4-----4-4----4--4-----||
g|--4-4-----4-4----4--4------||
d|2-------2------2-----------||
a|---------------------------||
e|---------------------------|| 


CHORUS
then
BRIDGE
phew, another long tab...

GTR 1

e|---------------------------|
b|---------------------------|
g|--6-6-6-6------------------|
d|--x-x-x-x------------------|
a|--4-4-4-4------------------|
e|---------------------------| x6

e|---------------------------|
b|---------------------------|
g|--9-9-9-9-/-11-11-12-12----|
d|--x-x-x-x-/-x--x--x--x-----|
a|--7-7-7-7-/-9--9--10-10----|
e|---------------------------|

e|---------------------------|
b|---------------------------|
g|--6-6-6-6/9\6-12-12-12-12--|
d|--x-x-x-x/x\x-x--x--x--x---|
a|--4-4-4-4/7\4-10-10-10-10--|
e|---------------------------| x3

e|----------------------------------|
b|----------------------------------|
g|--9-9-9-9-/-11-11-11-11-\-9~------|
d|--x-x-x-x-/-x--x--x--x--\-x~------|
a|--7-7-7-7-/-9--9--9--9--\-7~------|
e|----------------------------------|




GTR 2

e|---------------------------|
b|---------------------------|
g|---------------------------|
d|-6--6--6--6--6--6--6--6----|
a|-4--4--4--4--4--4--4--4----|
e|---------------------------|
p.m.*-*--*--*--*--*--*--*
e|---------------------------|
g|---------------------------|
b|---------------------------|
d|-2--2--2--2--2--2--2--2----|
a|-0--0--0--0--0--0--0--0----|
e|---------------------------|
p.m.*-*--*--*--*--*--*--*
e|---------------------------|
b|---------------------------|
g|---------------------------|
d|-6--6--6--6--6--6--6--6----|
a|-4--4--4--4--4--4--4--4----|
e|---------------------------| 
e|---------------------------------------|
g|---------------------------------------|
b|--7---7---9---10-9--7----7----7---10-9-|
d|---9---9---9---------9----9----9-------|
a|---------------------------------------|
e|---------------------------------------|

SECOND PRECHORUS

gtr 1
e|-------------------------------------|
g|----------4444444---|
b|----6--2--4444444--------------------|
d|-2--6--2--4444444--------------------|
a|-2--4--0--2222222--------------------|
e|-0-----------------------------------|
gtr 2
e|------------------------------------------------------|
g|-------------------------------------|
b|----------666666666--22222222222--4444444-------------|
d|-2222222--666666666--22222222222--4444444-------------|
a|-2222222--444444444--00000000000--2222222-------------|
e|-0000000----------------------------------------------|
when thats done ...

gtr 2
e|---------|
b|---------|
g|-9\8/11--|
d|-x\x/x---|
a|-7\6/9---|
e|---------|
and go right into....

CHORUS
then

OUTRO
GTR 2
e|-------------------------------------------|
g|-------------------------------------------|
b|--13-13-13-13-13-13-\-11-11-11-11-11-11\9~-|
d|--x--x--x--x--x--x--\-x--x--x--x--x--x-\x~-|
a|--11-11-11-11-11-11-\-9--9--9--9--9--9-\7~-|
e|-------------------------------------------| x6

e|---------|
g|---------|
b|-8~-9~---|
d|-x~-x~---|
a|-6~-7~---|
e|---------|

GTR 1

e|----------------------------------|
g|----------------------------------|
b|----------------------------------|
d|--6-6-6-6-6-6-6\4-4-4-4-4-4-4-4\2~|
a|--4-4-4-4-4-4-4\2-2-2-2-2-2-2-2\0~|
e|----------------------------------|
p.m.*-*-*-*-*-*-*-*-*-*-*-*-*-*-*---
e|-----------|
g|-----------|
b|--/-11-13--|
d|--/-x--x---|
a|--/-9--11--|
e|-----------|

and thats it ladies and gents!!
\oo/ ROCK ON \oo/





Comments


Popular Matchbook Romance tabs & chords
The Greatest Fall Bass Tabs
The Greatest Fall Of All Time Chords
Tiger Lily 2 Chords
I Wish You Were Here 1 Tabs
Introduction Tabs
Surrender Tabs
Tiger Lily 1 Tabs
What A Sight Tabs
Your Stories My Alibis 1 Tabs
My Mannequin Can Dance Ukulele


Song lyrics



↑ Back to top | Tablatures and chords are parodies/interpretations of the original songs. You may use it for private study, scholarship, research or language learning purposes only
© 2014 AZChords.com Contact us | Privacy policy | DMCA | Add/correct tabs | Request tabs | Top 50 tabs